The Magic Numbers - Forever Lost Chords & Tabs

 

Forever Lost Chords & Tabs

The Magic Numbers Chords & Tabs

Version: 2 Type: Bass Tab 0 ratings
1 star 2 stars 3 stars 4 stars 5 stars
comments

Forever Lost Bass Tab

----------------------------------------------------------------------------
			  Forever lost - The magic numbers
----------------------------------------------------------------------------

Tabbed By :Anfo 
e-mail:sessionalschizophrenic@hotmail.com

Tuning:Standard (EADG)

Intro/verse
G|9-9--7--9-9--7--|
D|----------------|
A|----------------|
E|----------------|
[ Tab from: http://www.guitartabs.cc/tabs/t/the_magic_numbers/forever_lost_btab_ver_2.html ]
Chorus                          "we're forever lost"
G|------------------------------|--------|--------|
D|---7-7----9-9----6-6----------|--------|--------|
A|------------------------------|--------|--------|
E|5------7------4-------4-4-5-5-|5-------|7-------|
The last G# I entered (4th fret on the E string) could be C# (4th on the A string
because I think the guitarist plays a bar chord over the 4th fret so it works with
either.

Bridge
"What am I to do"
G|----------------|----------------|----------------|--------6-8-6-8|
D|----------------|----------------|----------------|---------------|
A|7-7-7-7-7-7-7-7-|7-7-7-7-5-7-5-7-|4-4-4-4-4-4-4-4-|4-4-4-4--------|
E|----------------|----------------|----------------|---------------|

The rest of the song is pretty much repeated, I'm not sure about the verse bit but it
wouldn't be out of key because the D would be a passing note into the Em chord. Apart
from that I'm about 90% certain that this is correct
Comments