The Magic Numbers - Forever Lost Chords & Tabs

 

Forever Lost Chords & Tabs

The Magic Numbers Chords & Tabs

Version: 1 Type: Bass Tab 0 ratings
1 star 2 stars 3 stars 4 stars 5 stars
comments

Forever Lost Bass Tab

The Magic Numbers - Forever lost
Tabbed by - Josh Wheeler

I know its not exact, but its the rough idea, there are a few jump about notes, this is my first tab.

Any suggestions/problems, lamb_of_tv@hotmail.com

Verse

G---9-9---9-9----|
D----------------|
A-7------7-------|  Repeat however many times
E----------------|

Chorus
[ Tab from: http://www.guitartabs.cc/tabs/t/the_magic_numbers/forever_lost_btab.html ]
G-----------------------------|
D-----------------------------|
A----------------------4-4-4--|
E-5-5-5-7-7-7-4-4-4-----------|

Second part of chorus

G--------------------|
D--------------------|
A--------------------|
E-5-5-5-5-7-7-7-7----|

"looks like it all went wrong" bit

G------------------------------|
D--------------6(x12)-9(x12----|
A-7(x12)-----------------------|
E--------4(x12)----------------|
Comments