The Low Life - You Are Everything Chords & Tabs

 

You Are Everything Chords & Tabs

The Low Life Chords & Tabs

Version: 1 Type: Tab

You Are Everything Tab

Hey this is Tommy Minkler.  I'm 14 and have been playin guitar for 3 years.  I hope you 
this tab and i hope you like the Low lIfe cause their a great band with a lot of great
 This song is really easy but still great to play.  The Low Life is one of my favorite
bands and I'm hoping they'll get back together! Enjoy.
                    Intro

e------5----------------------------7-------5------3------------------------|
B----7----------------------------7-----------------------------------------|
G--7-------- 6-6------4-4-------7---------6------4--------------------------|
D----------7--------5-------------------7------5----------------------------|
A---------------------------------------------------------------------------|
E---------------------------------------------------------------------------|
                  Repeat the intro a bunch of times
[ Tab from: http://www.guitartabs.cc/tabs/t/the_low_life/you_are_everything_tab.html ]
The verse is just Bm, D, G, and C. Listen to the song to get the rythym.  The rythym is 
easy to get.

The Chorus is E, G, D, A.  Repeat twice i think.  When you get to the part where he 
D, he puts his pinky on the high e like this.
e--2--22-2-3-2-2-2-------------|
B--3--33-3-3-3-3-3--2----------|
G--2--22-2-2-2-2-2--2----------|
D-------------------2----------|
A------------------------------|
E------------------------------|
Listen to the song to get the rythym right

verse
chorus

the bridge is real easy. it goes like G, D, A, and then back to G.  It sounds better if 
the chrods are barred for the bridge.

Im not really sure how to play the short little riff thats kinda like a mini-solo.  Im 
on it though and ill post once i get it.

Chorus a bunch of times

Thats pretty much it besides the little solo thing.  I hope you like it and if you see 
mistakes e-mail me at minimink11@msn.com.  This is my first tab so it might not be perfect.
Peace.