The Lovin' Spoonful - Daydream Chords & Tabs

 

Daydream Chords & Tabs

The Lovin' Spoonful Chords & Tabs

Version: 1 Type: Bass Tab 0 ratings
1 star 2 stars 3 stars 4 stars 5 stars
comments

Daydream Bass Tab

   
Daydream
The Lovin' Spoonful

Tabbed by fingerpickin727

3/4 Time

Part A
   Q.E Q
G- -----|
D- -----|
A- --4-4|
E- 1----|

Part B
   Q.E Q Q.E Q Q.E Q Q.E Q
G- -----|-----|-----|-----|
D- -----|-----|--1-1|-----|
A- --4-4|--1-1|-----|--3-3|
E- 1----|1----|1----|1----|

Part C
   Q.E Q Q.E Q Q.E Q Q.E Q 
G- -----|-----|-----|-----|
D- -----|-----|--3-3|--0-0|
A- --4-4|--1-1|-----|-----|
E- 1----|1----|1----|1----|
[ Tab from: http://www.guitartabs.cc/tabs/t/the_lovin_spoonful/daydream_btab.html ]
Part D
   Q.E Q Q.E Q Q.E Q Q.E Q
G- -----|-----|-----|-----|
D- -----|-----|--1-1|--3-3|
A- --3-3|--4-4|-----|-----|
E- 1----|1----|1----|1----|

Order:
Part A x1
Part B x2
Part C x3
Part D x1

Part B x2
Part C x3
Part D x1

Part B x2
Part C x3
Part D x1

Part B x2
Part C x3

Note:
W=whole note
H=half note
Q=quarter note
E=eigth note
S=sixteenth note
R=rest (in this riff, an eigth rest)
.=extends value of note by half

Please Rate

Enjoy!
Comments