The Loved Ones - 100k Chords & Tabs

 

100k Chords & Tabs

The Loved Ones Chords & Tabs

Version: 2 Type: Tab 0 ratings
1 star 2 stars 3 stars 4 stars 5 stars
comments

100k Tab

   
The Loved Ones
100K
The Loved Ones [EP]
Standard Tuning

Update: 3/11/06 - Fixed Lyrics (i know my interpretation was the worst). This song was
rerecorded for the Loved Ones' full length "Keep Your Heart". It's generally the same
idea. Pick up the cd!

Intro
   E     A     B     A     E     A     B     A     E     A     B     C#    A  B
e--------------------------------------------------------------------------------|
B--5-5-5-------------------------------------------------------------------------|
G--4-4-4-2-2-2-4-4-4-2-2-2-------2-2-2-4-4-4-2-2-2-------2-2-2-4-4-4-6-6-6-2--4--|
D--2-2-2-2-2-2-4-4-4-2-2-2-2-2-2-2-2-2-4-4-4-2-2-2-2-2-2-2-2-2-4-4-4-6-6-6-2--4--|
A--------0-0-0-2-2-2-0-0-0-2-2-2-0-0-0-2-2-2-0-0-0-2-2-2-0-0-0-2-2-2-4-4-4-0--2--|
E--------------------------0-0-0-------------------0-0-0-------------------------|


Verse (part 1)
 Guitar 1                              Guitar 2 (throughout)
e------------|-----------------------||-----------------|
B------------|-----------------------||-----------------|
G--2-2-9-----|------9-9--------------||--9-9-9-9-9-9-9--|
D--2-2-9-----|--7-7-9-9-9-9-9-9-9-9--||--x-x-x-x-x-x-x--|
A--0-0-7\----|--7-7-7-7-9-9-9-9-9-9--||--7-7-7-7-7-7-7--|
E------------|--5-5-----7-7-7-7-7-7--||-----------------|
           3x
Are you ok
Are you alright
Another bad dream
Kept you up all night

Verse (part 2)
e----------------------|
B----------------------|
G--2-2-9--x-x-9-x-x-9--|
D--2-2-9--x-x-x-x-x-x--|
A--0-0-7\-x-x-7-x-x-7--|
E----------------------|
You've ground your teeth
Down to the gums

e---------------------------------------------|
B---------------------------------------------|
G--2-2/9-9-9-9\8/9-9\8/9-----9-9--------------|
D--2-2-x-x-x-x-x-x-x-x-x-7-7-9-9-9-9-9-9-9-9--|
A--0-0/7-7-7-7\6/7-7\6/7-7-7-7-7-9-9-9-9-9-9--|
E------------------------5-5-----7-7-7-7-7-7--|
Your eyes are bloodshot
From staring at the sun

Prechorus
A
You say you're ok and you're keeping the pace
B
But the damage done is written all over your face

Chorus
E         A                  B      A
Given the chance, I'd rather rot in hell
E       A                B         A
See you fade selling the lies they tell
E        A              B         C#          A
Burn the house down and break the spell this time
B
This time
         E
This time

Fill (on the KEEP YOUR HEART version, play an open G, too)
e---0----|
B---0----|
G--------|
D--------|
A--------|
E--------|
[ Tab from: http://www.guitartabs.cc/tabs/t/the_loved_ones/100k_tab_ver_2.html ]
Verse 2
 Guitar 1                              Guitar 2 (throughout)
e------------|-----------------------||-----------------|
B------------|-----------------------||-----------------|
G--2-2-9-----|------9-9--------------||--9-9-9-9-9-9-9--|
D--2-2-9-----|--7-7-9-9-9-9-9-9-9-9--||--x-x-x-x-x-x-x--|
A--0-0-7\----|--7-7-7-7-9-9-9-9-9-9--||--7-7-7-7-7-7-7--|
E------------|--5-5-----7-7-7-7-7-7--||-----------------|
           2x
So what do you say
We'll go tonight
e----------------------------------------------|
B----------------------------------------------|
G--2-2-4----------------------9-9--------------|
D--2-2-2-2-2-2-2-2-2-2-2--7-7-9-9-9-9-9-9-9-9--|
A--0-0---2-2-2-2-2-2-2-2--7-7-7-7-9-9-9-9-9-9--|
E--------0-0-0-0-0-0-0-0--5-5-----7-7-7-7-7-7--|
      PM - - - - - - - -
We'll take a load of bad drugs
And stay up all night
e----------------------|-------------------------|-----------------------|
B----------------------|-------------------------|-----------------------|
G--2-2-9--x-x-9-x-x-9--|-8/9-9-8/9-9-8/9-9-8/9-9-|------9-9--------------|
D--2-2-9--x-x-x-x-x-x--|-x-x-x-x-x-x-x-x-x-x-x-x-|--7-7-9-9-9-9-9-9-9-9--|
A--0-0-7\-x-x-7-x-x-7--|-6/7-7-6/7-7-6/7-7-6/7-7-|--7-7-7-7-9-9-9-9-9-9--|
E----------------------|-------------------------|--5-5-----7-7-7-7-7-7--|
                     2x  w/ Fill 2
We'll ride away
Sleep where we fall
We'll slit our own throats
Bathe in the waterfall
Fill 2
e----(hold bend; not exact hits)--|
B--11^11-11-11-11-11`11^-10-------|
G--------------------------10-----|
D---------------------------------|
A---------------------------------|
E---------------------------------|

Prechorus
Guitar 2
e---------------------|
B---------------------|
G--/4-2-1-------------|
D---------2--/4--2-1--|
A---------------------|
E---------------------|
A
I can see it all over your face
B                                 E
You've been numb for days and days
A
Your back is breaking under the load
B
Your head is pounding like it's ready to explode

Chorus

Bridge
Feedback

Before 3rd chorus: A B

4th Chorus (same as intro w/ words)

5th Chorus
Same as last (STOP BEFORE
HITTING B THE LAST TIME)
but with lead throughout:
e-----------------|
B-----------------|
G--9-9-9-9-9-9-9--|
D--x-x-x-x-x-x-x--|
A--7-7-7-7-7-7-7--|
E-----------------|

Fill 3
A B A B A B

Last chorus
e---------------------------|---------------------------------------|
B---------------------------|---------------------------------------|
G--------2-2-2-4-4-4-2-2-2--|--------2-2-2-4-4-4-6-6-6-2-2-2-4-4-4--|
D--2-2-2-2-2-2-4-4-4-2-2-2--|--2-2-2-2-2-2-4-4-4-6-6-6-2-2-2-4-4-4--|
A--2-2-2-0-0-0-2-2-2-0-0-0--|--2-2-2-0-0-0-2-2-2-4-4-4-0-0-0-2-2-2--|
E--0-0-0--------------------|--0-0-0--------------------------------|
                          2x

Ending
e-----------------------------|
B-----------------------------|
G--6-6-6-4-4-4-9--------------|
D--6-6-6-4-4-4-9-----------2--|
A--4-4-4-2-2-2-7-----------2--|
E--------------------------0--|

It might be wrong. But that's the general idea!
Comments