The Loved Ones - 100k Chords & Tabs

 

100k Chords & Tabs

The Loved Ones Chords & Tabs

Version: 1 Type: Tab 0 ratings
1 star 2 stars 3 stars 4 stars 5 stars
comments

100k Tab

Artist: The Loved Ones

Song- 100k

Tabber- Array45



this is a pretty easy song to play... figure out how many times to play each chord

tuning: standard


    x2                     
|--------------------|-----------------------------|
|--------------------|-----------------------------|
|--------------------|-----------------------------|
|----9---------------|---9-------------------------|
|----7---7--9--7-----|---7---7--9--11--7--9--------|
|---------5--7--5----|-------5--7---9--5--7--------|


"GO!!"
    x2                     
|------------------|-----------------------------|
|------------------|-----------------------------|
|------------------|-----------------------------|
|----9-------------|---9-------------------------|
|----7----7--9--7--|---7---7--9--11--7--9--------|
|---------5--7--5--|-------5--7---9---5--7-------|

"Are you okay....."
               
|----------------------------------------------------------|
|----------------------------------------------------------|
|----------------------------------------------------------|
|----9-----------9--------9----------------9---------------|
|----7-------7---7----7---7----------7-----7---9-----------|
|------------5--------5--------------5----------7----------|

|---------------------------------------------------------------|
|---------------------------------------------------------------|
|---------------------------------------------------------------|
|----9--9----------9---9--------9----------------9--------------|
|----7--7------7---7---7----7---7----------7-----7---9----------|
|--------------5------------5--------------5----------7---------|

PM   .               .    

|---------------------------|
|---------------------------|
|---------------------------|
|---------------------------|
|----7-------9--------------|
|----5-------7--------------|


|-----------------|--------------------------|-------------------|
|-----------------|--------------------------|-------------------|
|-----------------|--------------------------|-------------------|
|----9------------|-----9--------------------|-----9~~~~~~-------|
|----7---7--9--7--|-----7---7--9--11--7--9---|-----7~~~~~~-------|
|--------5--7--5--|---------5--7---9--5--7---|-------------------|

[ Tab from: http://www.guitartabs.cc/tabs/t/the_loved_ones/100k_tab.html ]
|-----------------------------------------------------------------------|
|-----------------------------------------------------------------------|
|-----------------------------------------------------------------------|
|--------9--------------9--------------9----------------9---------------|
|--7-----7--------7-----7----7\2-------7---------7------7---9-----------|
|--5--------------5----------5\0-----------------5----------7-----------|
PM		               .
|---------------------------------------------------------------|
|---------------------------------------------------------------|
|---------------------------------------------------------------|
|----9--9----------9---9--------9----------------9--------------|
|----7--7------7---7---7----7---7----------7-----7----9---------|
|--------------5------------5--------------5----------7---------|
PM      .              .

|---------------------------|\
|---------------------------| \
|---------------------------|  \  x
|---------------------------|  /  2
|----7-------9--------------| /
|----5-------7--------------|/

|------------------|-----------------------------|\
|------------------|-----------------------------| \
|------------------|-----------------------------|  \  x
|----9-------------|---9-------------------------|  /  2
|----7---7--9--7---|---7---7--9--11--7--9--------| /
|---------5--7--5--|-------5--7---9---5--7-------|/

|---------------------------------------|
|---------------------------------------|
|---------------------------------------|
|----------------------------9~~~~------|
|-----11---------9--------==-7~~~~------|
|-----9----------7----------------------|

|---------------------------------------------------------------|
|---------------------------------------------------------------|
|---------------------------------------------------------------|
|---------------------------------------------------------------|
|----7----------------9-----------------------------------------|
|----5----------------7-----------------------------------------|

|-----------------|-----------------------------|
|-----------------|-----------------------------|
|-----------------|-----------------------------|
|----9------------|---9-------------------------|
|----7---7--9--7--|---7---7--9--11--7--9----|
|--------5--7--5--|-------5--7---9---5--7---|

|----------------|--------------------|-----------------------|
|----------------|--------------------|-----------------------|
|----------------|--------------------|-----------------------|
|----9-----------|--9-----------------|-----------------------|
|----7--7--9--7--|--7--7---9---11--7--|---7--9--7--9----------|
|-------5--7--5--|-----5---7---9---5--|---5--7--5--7----------|

|----------------------------------------------------------------|\
|----------------------------------------------------------------| \
|----------------------------------------------------------------|  \  x
|----9----------------9--------------9---------------------------|  /  2
|----7----7--9--7-----7--7--9--7-----7---7--9---11--7--9---------| /
|---------5--7--5--------5--7--5---------5--7---9---5--7---------|/

|------------------------------------------------------------------|
|------------------------------------------------------------------|
|------------------------------------------------------------------|
|---------------9~~~~~~~~~~~~~~~~~~--------------------------------|
|---7---5------7~~~~~~~~~~~~~~~~~~---------------------------------|
|---9---7----------------------------------------------------------|


thats almost 100% accurate. im working on the second guitar and i should finish it soon.
Comments