The Living End - Witch Doctor Chords & Tabs

 

Witch Doctor Chords & Tabs

The Living End Chords & Tabs

Version: 1 Type: Tab 0 ratings
1 star 2 stars 3 stars 4 stars 5 stars
comments

Witch Doctor Tab

   
 Witch Doctor , The Living End, Tabbed by Mick Fryar
                                manumick20@yahoo.com
Intro: (bass does it twice first)
      e--------------------------------------|
      b--------------------------------------|
      g-------------------------6--7---------|
      d-----------5-----7-5-7-8---7----------| (x4)
      a-------5-6---6-5----------------------|
      e-3-5-6--------------------------------|
then, G - G - intro(once) - G - G - intro(once)

Verse: A# - G - A# - C - D

Intro( see above ok,every thing is there u need)
Verse

Chorus: E - B - C - G - B    -   B - C

Intro a couple of times
Solo:
e-3-3-------|
b-3-3-4~4---|
g-4-4-4~4---|
d-5-5-------|
a-5-5-------|
e-3-3-------|
[ Tab from: http://www.guitartabs.cc/tabs/t/the_living_end/witch_doctor_tab.html ]
e---------------------------------------------|
b---------------------------------------------|
g---------7-6-7------------------9-8-9--------|
d-5-5-7-8-------8-7-5---7-7-9-10-------10-9-7-|
a---------------------------------------------|
e---------------------------------------------|

e------------------------------------------|
b------------------------------------------|
g-----------10-9-10------------------------|
d-8-8-10-11---------11-10-8----9~-10-9~-10-|
a------------------------------------------|
e------------------------------------------|

Then after solo play a G as many times as needed.
then you play

e-------------------|
b-------------------|
g-------------------|
d---------3-5-3-3---|
a-----3-5-----------|do that as many times as needed,then play that other bit of intro(see above)
e-3-6---------------|

Verse
Chorus
Intro(just riff)(x2)
G - G.
Tabbed by Mick Fryar,manumick20@yahoo.com
Comments