The Living End - Whos Gonna Save Us Chords & Tabs

 

Whos Gonna Save Us Chords & Tabs

The Living End Chords & Tabs

Version: 7 Type: Tab 0 ratings
1 star 2 stars 3 stars 4 stars 5 stars
comments

Whos Gonna Save Us Tab

This intro has some ping-pong delay in it.
You need to stretch your fingers a bit but 
once your used to it its easy.

[ Tab from: http://www.guitartabs.cc/tabs/t/the_living_end/whos_gonna_save_us_tab_ver_7.html ]
e-------------------------------------|
b--8-8-8---8---8---8-8-8---8---8------|
g--7-5-4---4---5---7-5-4---4---5------|
d--------5-7-5---5-------5-7-5---5----|
a-------------------------------------|
e-------------------------------------|

e|--------------|
B|--------------|
G|---7--7--7----|
D|---7--7--7----|
A|---5--5--5----|
E|--------------|

Any questions email me bturville@hotmail.com
Comments