The Living End - Whos Gonna Save Us Chords & Tabs

 

Whos Gonna Save Us Chords & Tabs

The Living End Chords & Tabs

Version: 6 Type: Tab 0 ratings
1 star 2 stars 3 stars 4 stars 5 stars
comments

Whos Gonna Save Us Tab

This is a great song by a great band! Its one of their easiest solos to play.

Guitar 1:

e----------3-4-3h4-------3-4-3h4-------------------------------------------|
b-----4--4---------6-4~----------6-4--4-4-4--------------4-4-6p4-----------|
g--3----------------------------------------4--/5-3--3h5---------5p3-------|
d--------------------------------------------------------------------------|
a--------------------------------------------------------------------------|
e--------------------------------------------------------------------------|
[ Tab from: http://www.guitartabs.cc/tabs/t/the_living_end/whos_gonna_save_us_tab_ver_6.html ]
e------3-4-3h4-------3-4-3h4-----------------------------------------------|
b-4--4---------6-4~----------6--8-----8----8----8----8----8----8-----------|
g------------------------------10^^--10^^-10^^-10^^-10^^-10^^-10^^--8~--10-|
d--------------------------------------------------------------------------|
a--------------------------------------------------------------------------|
e--------------------------------------------------------------------------|

Guitar 2

e--------------------------------------------------------------------------|
b--------------------------------------------------------------------------|
g-----8-8-8-8-----------8-8-8-8-----------5-5-5-5-----------8-8-8-8-8-8-8--|
d--8--8-8-8-8--8-8-8-8--8-8-8-8--8-8-8-8--5-5-5-5--6-6-6-6--8-8-8-8-8-8-8--| 
a--8--6-6-6-6--8-8-8-8--6-6-6-6--8-8-8-8--3-3-3-3--6-6-6-6--6-6-6-6-6-6-6--|
e--6-----------6-6-6-6-----------6-6-6-6-----------4-4-4-4-----------------|

Any questions or corrections email me at bturville@hotmail.com
Comments