The Living End - Whos Gonna Save Us Chords & Tabs

 

Whos Gonna Save Us Chords & Tabs

The Living End Chords & Tabs

Version: 5 Type: Tab 0 ratings
1 star 2 stars 3 stars 4 stars 5 stars
comments

Whos Gonna Save Us Tab

   
----------------------------------------------------------------------------	     
Who's gonna save us? - The Living End
----------------------------------------------------------------------------
Tabbed by: Cheneyisgod
Email: Anthonysmith15@hotmail.com

Tuning: Standard

I wasn't sure whether to classify this as a tab or chords coz it's a bit of both. Use
this as a guide, it may not end up positioned right so play it however it feels right

Intro
e|-------------------|
B|-------------------|
G|---7-5-4-----------| x whatever, then D twice
D|---------5-7-5-9---|
A|-------------------|
E|-------------------|


Verse (palm mute if you want)
e|------------------------------------------------------------------------|
B|------------------------------------------------------------------------|
G|------------7----------7----------5----------------------2-------4-4-5--|
D|------5-----7----5-----7----2-----5----5-----5-----2-----2----2--4-4-5--|
A|------5-5-5-5----5-5-5-5----2-3-3-3----5-----5-----2-0-0-0----2--2-2-3--|
E|--3-3-3------3-3-3------0-0-0------3-3-3-3-3-3-0-0-0------0-0-0-0-------|
        G     D    G     D    E     C    G     G     E     A    E  B   C

Verse 1
G               D
It's all around me and
  G             D
I just don't undestand
   E                C         G
it seems all out of place now
       E            A
and I know it's late
         E         B       C
but you know what they say now

Verse 2
G           D
We'e under attack now
   G             D
our work is all cut out
    E                 C          G
whatever happened to your rights?
       E           A
and I know it's late
         E              B    C 
but you know what they say now
C
(who's gonna save us)
E       B       C
what they say now
C
(who's gonna save us)

Chorus
e|-----------------------------------------------------------------|
B|-----------------------------------------------------------------|
G|-----7-7-----7-7-9-9-5-5---------9-9-----9-9-4-4-5-5-5-5-5-5-----|            
D|-5-5-7-7-5-5-7-7-9-9-5-5-5-5-5-5-9-9-7-7-9-9-4-4-5-5-5-5-5-5-5-5-|
A|-5-5-5-5-5-5-5-5-7-7-3-3-5-5-5-5-7-7-7-7-7-7-2-2-3-3-3-3-3-3-5-5-|
E|-3-3-----3-3-------------3-3-3-3-----5-5---------------------3-3-|
   G   D   G   D   E   C   G       E   A   E   B   C           G
[ Tab from: http://www.guitartabs.cc/tabs/t/the_living_end/whos_gonna_save_us_tab_ver_5.html ]
    G            D      G      D
So where's the writing on the wall?
 E          C     G 
who's gonna save us?
 E           A
who's gonna provide us?
 E           B
who's gonna divide us?
 C           G
who's gonna save us?

Verse 3
G            D
We're under powered now
 G         E   
trial devoured now
     E           C          G
step aside make way for the new leader
         E          A
and it's getting late
        E          B       C
but you know what they say now
C
(who's gonna save us)
E     B       C
what they say now
C
(who's gonna save us)

Chorus
    G           D      G      D
So where's the writing on the wall
 E           G
who's gonna save us?
 E           A
who's gonna provide us?
 E           B
who's gonna divide us?
 E           G
who's gonna save us?
 E           G        D
who's gonna save us? Go!

Solo (there is a really good version of the solo on this site already which is fun to
learn, but if you can't get it, here's a simple cheat version that sounds good and fits
nicely)
e|---------------------------------|
B|-----8-9-8-----8-9-8-------------|
G|-3s8------10-8------10-8-888-----| 
D|----------------------------10-8-|
A|---------------------------------|
E|---------------------------------|

e|-------------------------11-11-11-------|
B|-----8-9-8-----8-9-8--------------13-11-|
G|-3s8------10-8------10-8----------------| 
D|----------------------------------------|
A|----------------------------------------|
E|----------------------------------------|

e|-------------------|
B|-------------------|
G|---7-5-4-----------| x whatever again with                               
D|---------5-7-5-9---|   palm muting the last
A|-------------------|   few time
E|-------------------|

Repeat verse 1
G               D          
It's all around me and
  G             D
I just don't understand
   E                C        G
it seems all out of place now
     E           A
and I know it's late
        E         B          C
but you know what they say now
C
(who's gonna save us)
E       B       C
what they say now
C
(who's gonna save us)

who's gonna provide us?
who's gonna divide us?
who's gonna provide us?
who's gonna divide?!

Chorus Twice and your done. End on whatever you want
Comments