The Living End - West End Riot Chords & Tabs

 

West End Riot Chords & Tabs

The Living End Chords & Tabs

Version: 3 Type: Tab

West End Riot Tab

                        The Living End - West end riot
Tabbed by Dan (guitar_guy)
Email: music_mad92@hotmail.com

Tuning: standard
                            intro part 1

e|---------7--7--7---------7--7--7---------7--7--7---------7--7--7|
B|888777888--8--8-888777888--8--8-888777888--8--8-888777888--8--8-|
G|999999999-9--9--999999999-9--9--999999999-9--9--999999999-9--9--|
D|----------------------------------------------------------------|
A|----------------------------------------------------------------|
E|----------------------------------------------------------------|

                            intro part 2
e|00000000000000------------------00000000000000--------------------|
B|88775533000000------------------88775533000000--------------------|
G|----------330000--------------------------3300000-----------------|
D|--------------44------5422----54--------------44------5422----54--|
A|------------------2233----2233--------------------2233----2233----|
E|----------------00------------------------------00----------------|

                                verse
e|0---------------------------------------------------------------|
B|0-------------55------------------------------------------------|
G|0-------------44------------------------------------------------|
D|2-------------22----5422----5422----5422----5422----5422----5422|
A|2---------------2233----2233----2233----2233----2233----2233----|
E|0---------------------------------------------------------------|
let em ring        every week they would meet...

e|----------------------------------------------------------------|
B|----------------------------------------------------------------|
G|------------------------------------------------------3443443444|
D|----5422----22------------22------------22------------3443443444|
A|2233----22332233----2233--2233----2233--2233----2233--1221221222|
E|------------00--3200----3200--3200----3200--3200----32----------|

                               chorus
e|-------------------- ----000-000-333----------------------|
B|55------------------ 333-000-111-333-----------------88---|
G|44-44-55----777-888- 444-000-000-000-222-444-555-777-77---|
D|22-44-55-55-777-888- 444-222-222-000-222-555-555-777-66---|
A|---22-33-55-555-666- 222-222-333-222-000-222-333-555-77---|
E|---------33--------- ----000-----333----------------------|

repeat above x4 until A, A# then repeat that whole section again the same.
[ Tab from: http://www.guitartabs.cc/tabs/t/the_living_end/west_end_riot_tab_ver_3.html ]
              bridge
e|------------ ------------ -----------|
B|------------ ------------ -----------|
G|-----5-----5 -----7-----7 9-4-5-77-99|
D|--5--5--5--5 --7--7--7--7 9-4-5-77-99|
A|--5333--5333 --7555--7555 7-2-3-55-77|
E|333---333--- 555---555--- -----------|

x2 then          x2 aswell

                               solo

e|----------3---------------------------------------------10h-11-10---|
B|-----3---4-3---------------------------11-11-11-13-13-13------------|
G|002/3-320--------320--12-12-12-14-14-14-----------------------------|
D|--------------030---45----------------------------------------------|
A|--------------------------------------------------------------------|
E|------------33------------------------------------------------------|

e|-----------------15-15-15-17-17-17-17h-18-17--------------------|
B|16-16-16-18-18-18-----------------------------------------------|
G|--------------------------------------------55/887-10\9-10-13-12|
D|----------------------------------------------------------------|
A|--------------------------------------------33/665--8\7--8-11-10|
E|----------------------------------------------------------------|

                                                   x2

e|---10-------------10-10------------15-----14------13---12---11----10---10|
B|------11----10-11-------11----10-11------0------0-----0----0----0---0----|
G|12-------12-10-12----------12-10-12---17-----16-----15---14---13---------|
D|-------------------------------------------------------------------------|
A|-------------------------------------------------------------------------|
E|-------------------------------------------------------------------------|

e---------------------------------------------------xxxx|
B---------------------------------------------------xxxx|
G------------------2-2-2-2-5-5-5-5-------------5-5-5xxxx|
D----------4-4-4-4-4-4-4-4-4-4-4-4---------4-4-4-4-4xxxx|
B--5-5-5-5-5-5-5-5-5-5-5-5-5-5-5-5-6-6-6-6-6-6-6-6-6xxxx|
E---------------------------------------------------xxxx|

now play the beggining of intro riff part 2.

                              interlude:
e|---------------- --------------------|
B|---------------- 8888-7777-5555-3333-|
G|---------------- --------------------|
D|---------------- --------------------|
A|--77--22--33--55 --------------------|
E|00--00--00--00-- --------------------|

        x8                x3 p.m

 then go back into chorus and your done. hope you liked it please email me for 
or comments. thanks