The Living End - Trace Of Doubt Chords & Tabs

 

Trace Of Doubt Chords & Tabs

The Living End Chords & Tabs

Version: 1 Type: Tab 0 ratings
1 star 2 stars 3 stars 4 stars 5 stars
comments

Trace Of Doubt Tab

   
                                       -THE LIVING END -
                                        Trace Of Doubt
                                   Tabbed by Michael Fryar
                                    manumick20@yahoo.com


p=pull-off
s=slide
~=vibrado
h=hammer-on
^=bend
v=bring bend back down trying
  to make it sound noticed


Intro:

e-------------------------------------------------------|
b----3-2-1---3-------3-2-1---3------3-2-1---3--3^-1-----|
g--0-------0-------0-------0------0-------0---------2-0-|
d-------------------------------------------------------|(x2)
a-------------------------------------------------------|
e-------------------------------------------------------|


Riff:
e--------------------------------|
b--------------------------------|
g-0-5-3--0-5-3--0-5-3-5s6-5-3-0--|
d-0-5-3--0-5-3--0-5-3-5s6-5-3-0--|(x3)
a--------------------------------|
e--------------------------------|

e-----------------------|
b-----------------------|
g-0-5-3--0-5-3-0-5-3----|
d-0-5-3--0-5-3-0-5-3----|
a-----------------------|
e-----------------------|



Verse:

       A#  F   G                                            A#
e---------------------------------------------------------------|
b---------------------------------------------------------------|
g-x-x--3----------------------------------------------------3~--|
d-x-x--3---3---5-(x4)(dead notes only the 1st time tohugh)--3~--|
a-x-x--1---3---5--------------------------------------------1~--|
e-x-x------1---3------------------------------------------------|

   A                C
e-------------------------------------------------------|
b-------------------------------------------------------|
g-2-2-2-2-2-2-2-5-5-5-5-5-5-5-0-5-3--0-5-3--0-5-3-3~----|
d-2-2-2-2-2-2-2-5-5-5-5-5-5-5-0-5-3--0-5-3--0-5-3-3~----|
a-0-0-0-0-0-0-0-3-3-3-3-3-3-3---------------------------|
e-------------------------------------------------------|

[ Tab from: http://www.guitartabs.cc/tabs/t/the_living_end/trace_of_doubt_tab.html ]
    A                 C
e-----------------------------|
b-----------------------------|
G-2-2-2-2-2-2-2-5-5-5-5-5-5-5-|
d-2-2-2-2-2-2-2-5-5-5-5-5-5-5-|
A-0-0-0-0-0-0-0-3-3-3-3-3-3-3-|
e-----------------------------|



   Bb                    F    G
e----------------------------------3-3-3-|
b----------------------------------3-3-3-|
g-3-3-3-3-3-3-3-3-3-3-3------------4-4-4-|
d-3-3-3-3-3-3-3-3-3-3-3--3-5-5-5-5-5-5-5-|
a-1-1-1-1-1-1-1-1-1-1-1--3-5-5-5-5-5-5-5-|
e------------------------1-3-3-3-3-3-3-3-|
  /palm muted.........\



Chorus:

   C          Em         F           G#
e-----------------0----------1----------4--|
b------5---------0----------1----------4---|
g-----5---------0----------2----------5----|
d----5---------2----------3----------6-----|(x4)
a-3-3---------2----------3----------6------|
e----------0-0--------1-1--------4-4-------|


Main Riff

Verse

Chorus


Bridge:

   C#    D#   E   F#
e---------------------|
b---------------------|
g--6-6--8-8--9-9--11--|
d--6-6--8-8--9-9--11--|(x4)
a--4-4--6-6--7-7--9---|
e---------------------|


Solo : (there could be a few out notes in the middle section)

e--------------------:--------------------------------10--|
b-5--5~----5~-5~-----:----------------------------6-8-----|
g-5--5~----5~-5~-0---:-------5----6-----7-----5s7---------|
d------------------5-:--5--5--5-5---5-5---5-5-------------|
a--------------------:------------------------------------|
e--------------------:------------------------------------|

e-10^-10-8-10-10---------------------------------|
b----------11--8-10-8----------------------------|
g---------------------10-9-8-10-9-8--------------|
d-----------------------------------10-9-8-------|
a-----------------------------------------10-10~-|
e------------------------------------------------|

e--------------------------------|
b--------------------------------|
G-3p0-4p0-5p0-6p0-7p0-8p0-9p0-10-|
d--------------------------------|
a--------------------------------|
e--------------------------------|


e-------3--|
b--5^v-----|
g--5^v-----|
d----------|
a----------|
e----------|


Verse

Chorus

Intro
Comments