The Living End - The Man With No Name Chords & Tabs

 

The Man With No Name Chords & Tabs

The Living End Chords & Tabs

Version: 1 Type: Tab 0 ratings
1 star 2 stars 3 stars 4 stars 5 stars
comments

The Man With No Name Tab

   
-THE LIVING END-
The Man With No Name
Tabbed By Mick Fryar-manumick20@yahoo.com

h=hammer-on
p=pull-off
()=electric guitar
x=dead note

Verse:

e---------------------------:---------------------------:-
b---------------------------:---------------------------:-
g----------2----------------:-----------2---------------:-
d-4--2--4----------------2--:--4--2--4---------------2--:- repeat that as many times as needed
a-5-------------4--2--4-----:--5------------4--2--4-----:-
e---------------5-----------:---------------5-----------:-e-----------------------------------------------------------------------
b----------------------------------------------------3-3-3-3-3-3-3-3----
g-2-2-2-2-2-2-2-2--2-2-2-2-2-2-2-2--2-2-2-2-2-2-2-2--2-2-2-2-2-2-2-2----
d-2-2-2-2-2-2-2-2--2-2-2-2-2-2-2-2--2-2-2-2-2-2-2-2--2-2-2-2-2-2-2-2----
a-0-0-0-0-0-0-0-0--x-x-x-x-x-x-x-x--x-x-x-x-x-x-x-x--x-x-x-x-x-x-x-x----
e------------------4-4-4-4-4-4-4-4--3-3-3-3-3-3-3-3--2-2-2-2-2-2-2-2----


   F            G
e--1-1-----1----2--2------
b--1----1--1----2--2------
g--2----0--2----0---------
d--3------------0-----0---
a---------------2-----2---
e---------------3-----3---

Chorus:
  A                    D                   Bm                  D    E    D    E
e----------------------2--2-2-2---2-2-2-2--2--2-2-2---2-2-2-2--2-2--0-0--2-2--0-0-
b-2--2-2-2---2-2-2-2---3--3-3-3---3-3-3-3--3--3-3-3---3-3-3-3--3-3--0-0--3-3--0-0-
g-2--2-2-2---2-2-2-2---2--2-2-2---2-2-2-2--4--4-4-4---4-4-4-4--2-2--1-1--2-2--1-1-
d-2--2-2-2---2-2-2-2---0--0-0-0---0-0-0-0--4--4-4-4---4-4-4-4--0-0--2-2--0-0--2-2-
a-0--0-0-0---0-0-0-0-----------------------2--2-2-2---2-2-2-2-------2-2-------2-2-
e-------------------------------------------------------------------0-0-------0-0-

Verse

Chorus (x2)

*end 2nd time on*

e-0-0-0-0-0-0-0-0--
b-2-2-2-2-0-0-0-0--
g-2-2-2-2-2-2-2-2--
d-2-2-2-2-2-2-2-2--
a-0-0-0-0-0-0-0-0--
e------------------

Bridge:

  over D aggegio
e-10----------10----------10----------10-----------
b----10----10----10----10----10----10----10----10--
g-------11----------11----------11----------11-----
d--------------------------------------------------
a--------------------------------------------------
e--------------------------------------------------
[ Tab from: http://www.guitartabs.cc/tabs/t/the_living_end/the_man_with_no_name_tab.html ]
   over Dmaj7 appegio
e-9----------9----------9----------9---------------
b---10----10---10----10---10----10---10----10------
g------11---------11---------11---------11---------
d--------------------------------------------------
a--------------------------------------------------
e--------------------------------------------------
                                  Gm     E    Gm    D    Gm    D  Gm     D
                                  *strum these chords as much as needed*
e-8---------8---------8-----------3-3-3--0---3-3-3--2---3-3-3--2--3-3-3--2--
b---10---10---10---10---10---10---3-3-3--0---3-3-3--3---3-3-3--3--3-3-3--3--
g------9---------9---------9------3-3-3--1---3-3-3--2---3-3-3--2--3-3-3--2--
d---------------------------------5-5-5--2---5-5-5--0---5-5-5--0--5-5-5--0--
a---------------------------------5-5-5--2---5-5-5------5-5-5-----5-5-5-----
e---------------------------------3-3-3--0---3-3-3------3-3-3-----3-3-3-----

Solo: This solo requires 2 guitars. Chris must of dubbed it. Both guitar parts
are pretty much the same though.

GUITAR 1:
e--------------------------------------------------------2--------------------
b-----0--0--0--0--0--0-----0--0--0--0h2-0------3-2--3--3---3------------------
g-2---6--6--4--6--4--2--2--6--6--4--------2-----------------------------------
d-2---2--2--2-----------0--------------------4------4-------------------------
a-0------------------------------------------2------2-------------------------
e-----------------------------------------------------------------------------

GUITAR 2:
e-----------------------------------------------------------------------------
b----2--2--0--0h2--------2--2--0-----2-----0--------3--2--3--5--3-2-----------
g-2----------------2--------------2-----2-----2-------------------------------
d-2-------------------0--------------------------4----------------------------
a-0---------------------------------------------------------------------------
e-----------------------------------------------------------------------------

GUITAR 1:
e----2-------0------2-------0-------------------------------------------------
b---3-------0------3-------0--------------------------------------------------
g--2-------1------2-------1---------------------------------------------------
d-0-------2------0-------2----------------------------------------------------
a--------2--------------2-----------------------------------------------------
e-----------------------------------------------------------------------------

GUITAR 2:
e-2-----0-----2-----0----(-4-5-4-2-0-)----------------------------------------
b--3-----0-----3-----0--------------------------------------------------------
g---2-----1-----2-----1-------------------------------------------------------
d-----------------------------------------------------------------------------
a-----------------------------------------------------------------------------
e-----------------------------------------------------------------------------

Chorus

Outro:

e-0-0-0-0-0--2-2-2-0-0--
b-2-2-2-0-0--3-3-3-3-3--
g-2-2-2-2-2--2-2-2-2-2--
d-2-2-2-2-2--0-0-0-0-0-- repeat as many times as needed...after a while more strumming required
a-0-0-0-0-0-------------
e-----------------------

end on

E-0-
b-0-
G-2-
D-2-
A-0-
e---          


Tabbed By Michael Fryar  manumick20@yahoo.com
Comments