The Living End - Table Top Show Chords & Tabs

 

Table Top Show Chords & Tabs

The Living End Chords & Tabs

Version: 1 Type: Tab 0 ratings
1 star 2 stars 3 stars 4 stars 5 stars
comments

Table Top Show Tab

   
                                   -THE LIVING END-
                                     Table Top Show
                     Tabbed by Michael Fryar-manumick20@yahoo.com

^=sweep
s=slide
p=pull-off
h=hammer-on
~=full bend/vibrado
A.h=alternate harmonic


Intro:
       E  E  F# G  E  E  F# G  E  E  F# G  E  E  F# G  E  E  F# G  E E  F#  G
e---------------------------------------------------------------------------------2~~--
b---------------------------------------------------------------------------------0~~--
g---------------------------------------------------------------------------------2~~--
d------2--2--4--5--2--2--4--5--2--2--4--5--2--2--4--5--2--2--4--5--2--2--4--5-----1~~--
a------2--2--4--5--2--2--4--5--2--2--4--5--2--2--4--5--2--2--4--5--2--2--4--5--2--2~~--
e-12s--0--0--2--3--0--0--2--3--0--0--2--3--0--0--2--3--0--0--2--3--0--0--2--3----------


Verse:

   E  E  F# G  E  E  F# G  E  E  F# G  E  E  F# G  
e--------------------------------------------------
b--------------------------------------------------
g--------------------------------------------------
d--2--2--4--5--2--2--4--5--2--2--4--5--2--2--4--5-- (x2)
a--2--2--4--5--2--2--4--5--2--2--4--5--2--2--4--5--
e--0--0--2--3--0--0--2--3--0--0--2--3--0--0--2--3--

  A  A  B  C  A  A  B  C
e-------------------------
b-------------------------
g-2--2--4--5--2--2--4--5--
d-2--2--4--5--2--2--4--5-- (x2)
a-0--0--2--3--0--0--2--3--
e-------------------------
[ Tab from: http://www.guitartabs.cc/tabs/t/the_living_end/table_top_show_tab.html ]
E  E  F# G  E  E  F# G  E  E  F# G  E  E  F# G  
e--------------------------------------------------
b--------------------------------------------------
g--------------------------------------------------
d--2--2--4--5--2--2--4--5--2--2--4--5--2--2--4--5-- 
a--2--2--4--5--2--2--4--5--2--2--4--5--2--2--4--5--
e--0--0--2--3--0--0--2--3--0--0--2--3--0--0--2--3--
  B       C          E  E  F# G  E  E  F# G     B7
e-----------------------------------------------2~--
b-----------------------------------------------0~--
g-4-4-4-4-5-------------------------------------2~--
d-4-4-4-4-5----------2--2--4--4--2--2--4--5-----1~--
a-2-2-2-2-3----------2--2--4--4--2--2--4--5--2--2~--
e--------------------0--0--2--3--0--0--2--3---------
  B               C       B
e-------------------------------------
b-------------------------------------
g-4-4-4-4-4-4-4-4-5-5-5-5-4-4-4-4-----
d-4-4-4-4-4-4-4-4-5-5-5-5-4-4-4-4-----
a-2-2-2-2-2-2-2-2-3-3-3-3-2-2-2-2-----
e-------------------------------------


Chorus:
  E          F# G          A          B C
e------------------------------------------------------------
b------------------------------------------------------------
g--------------------------2--2--2--2-4-5--5---5----5--5-----
d-2--2--2--2-4-5--5--5--5--2--2--2--2-4-5--5------5---5------ (x2)
a-2--2--2--2-4-5--5--5--5--0--0--0--0-2-3--3----3------------
e-0--0--0--0-2-3--3--3--3------------------------------------

Intro

Verse

Chorus

Solo:

e-^12---8----------------:---------------10-:----------------------------------7-5-:-
b-^12-----10-8-7-7h8p7---:-----7h8p7--------:---5---6---7---8---7---6---5---5--7-5-:-
g-^12------------------9-:-7-9-------9-7----:--5---5---5---5---5---5---5---5-------:-
d------------------------:------------------:-7---7---7---7---7---7---7---7--------:-
a------------------------:------------------:--------------------------------------:-
e------------------------:------------------:--------------------------------------:-
            A.h
e----0-----------------------0---------0---------0-----:-----------------------------------------:-
b------3p0-----------------0---------0---------0-------:---------12--12--12--12--12--12--12--12--:-
g-2~--------2~-2-2~--2s4-4-----2s4-4-----2s4-4-----2~2-:---------14~-14~-14~-14~-14~-14~-14~-14~-:-
d------------------------------------------------------:-9-9-9-9---------------------------------:-
a------------------------------------------------------:-9-9-9-9---------------------------------:-
e------------------------------------------------------:-7-7-7-7---------------------------------:-
            
e-0-0------0----------------------:
b-0---0--0---0--8-7-6-5-4-3-2-1---:
g-0---0--0---0--9-8-7-6-5-4-3-2---:
d-2-------------------------------:
a-2-------------------------------:
e-0-------------------------------:

Bridge:
  A          C            E    F#  G  E     F# G  E     F# G  E     F# G
e-------------------------------------------------------------------------
b-------------------------------------------------------------------------
g-2--2--2--2--5--5--5--5--------------------------------------------------
d-2--2--2--2--5--5--5--5--2--2--4--5--2--2--4--5--2--2--4--5--2--2--4--5--
a-0--0--0--0--3--3--3--3--2--2--4--5--2--2--4--5--2--2--4--5--2--2--4--5--
e-------------------------0--0--2--3--0--0--2--3--0--0--2--3--0--0--2--3--
  A           C            B               C      B
e------------------------------------------------------------
b------------------------------------------------------------
g-2--2--2--2--5--5--5--5--4-4-4-4-4-4-4-4-5-5-5-5-4-4-4-4----
d-2--2--2--2--5--5--5--5--4-4-4-4-4-4-4-4-5-5-5-5-4-4-4-4----
a-0--0--0--0--3--3--3--3--2-2-2-2-2-2-2-2-3-3-3-3-2-2-2-2----
e------------------------------------------------------------        

Chorus

Intro

End on:
e----
b----
g-0--
d-2~-
A-2~-
e-0--

Comments