The Living End - Roll On Chords & Tabs

 

Roll On Chords & Tabs

The Living End Chords & Tabs

Version: 1 Type: Tab 1 rating
1 star 2 stars 3 stars 4 stars 5 stars
comments

Roll On Tab

   
Intro:
  
e--------------------------------------|
b--------------------------------------|
g-----6-6-9-----6-6-9-repeat as needed-|
d-7-7-7-7-7-7-7-7-7-7------------------|
a-0-0-0-0-0-0-0-0-0-0------------------|
e--------------------------------------|



Chorus:
  C      F      C       F     
e---------------------------|
b---------------------------|
g-5-5-5---------5-5-5-------|
d-5-5-5--3-3-3--5-5-5--3-3--|(
a-3-3-3--3-3-3--3-3-3--3-3--|
e--------1-1-1---------1-1--|

  C        G    Am         F  G
e----------3-3-------------1--3--|
b----------0-0--1-1--------1--0--|
g-5-5-5-5--0-0--2-2--------2--0--|
d-5-5-5-5--x-x--2-2--------3--x--|(x2 from start
a-3-3-3-3--2-2--0-0-----------2--|  of chorus)
e----------3-3------3-0-------3--|


IntroA


Verse:

  A                        C       D
e---------------------------------2--2-2--|
b---------------------------------3--3-3--|
g-----2-2-2-2-----2-2-2---5--5-5--2--2-2--|
d-----2-2-2-2-----2-2-2---5--5-5--0--0-0--|
a-3-0-0-0-0-0-----0-0-0---3--3-3----------|
e-------------3-0-------------------------|

   A    
e--------------|                   
b--------------|
g-----2-2-2-2--|
d-----2-2-2-2--|(x2)
a-3-0-0-0-0-0--|
e--------------|

Chorus

Intro

Verse


Solo:


   Em       (Em Pentaonic scale)
e--7---------------------------------------------|
b--8---------------------------------------------|
g-----9-9~-------7h9p7---7-----------------------|
d------------7h9-------9----9-8-7-5---7-6p5------|
a-----------------------------------7-------7----|
e---------------------------------------------0--|

  F     (Fmaj Arpeggio)
e--------------------------------------|
b--------------------------6-----------|
g------------------5-5-5-5-5------5-7--|
d----------7-7-7-7--------------7------|
a--8-8-8-8-----------------------------|
e--------------------------------------|

  A    (Am Pentatonic Scale)
e------5-----------------------------------|
b--------8-5---8-5-----5-------------------|
g--7^--------7-----7-5---7-5---7-5---------|
d----------------------------7-----7-5-7~--|
a------------------------------------------|
e------------------------------------------|

  F     (Triad-(notes of F,C,F,A))
e---------------------------------------|
b---8-10-10-10--8-10-10--8-11-10--8-10--|
g--10-10-10-10-10-10-10-10-10-10-10-10--|
d---------------------------------------|
a---------------------------------------|
e---------------------------------------|
[ Tab from: http://www.guitartabs.cc/tabs/t/the_living_end/roll_on_tab.html ]
  E   
e------15-------------------------------|
b--15^----15^^-12-15^--15^-15^-15^-15^--|
g---------------------------------------|
d---------------------------------------|
a---------------------------------------|
e---------------------------------------|



Last Verse:

  A        C   D   A          
e---------------------|
b---------------------|
g-2----2---5---7---2--|
d-2----2---5---7---2--|
a-0----0---3---5---0--|
e---------------------|


  A        C    D     A             A7
e-----------------------------------0--|
b-----------------------------------2--|
g-2---2---5-5--7-7--2-2-2-2-2-2-2---0--|
d-2---2---5-5--7-7--2-2-2-2-2-2-2---2--|
a-0---0---3-3--5-5--0-0-0-0-0-0-0-0-0--|
e--------------------------------------|



Bridge:

e------------------------------|
b------------------------------|
g-----------pause--(bass plays)|
d------------------------------|
a------------------------------|
e------------------------------|
 
there is a simpler way but this is how chris plays it

e---------------------------------------|
b---------------------------------------|
g---------------------------------------|
d---------------------------------------|
a---------------------------------------| 
e--3-3-3-3-3-3-3-3-6-6-6-6-8-8-8-8-(x2)-| 
                               

   G  A        G
e-----------------|
b-----------------|
g-----2-2-2-2-----|
d--5--2-2-2-2--5--|
a--5--0-0-0-0--5--|
e--3-----------3--|

      C  F        C  F 
e----------------------------------|
b----------------------------------|
g-x-x-5-------x-x-5----------------|
d-x-x-5--3-3--x-x-5--3-3-(x2)------|
a-x-x-3--3-3--x-x-3--3-3--------3--|
e--------1-1---------1-1------1----|

Chorus

IntroA


Outro:
                                             
e-------------------------------------------|
b-----9^^-------9^^---9^^-repeat as needed--|
g-------------------------------------------|
d-7-7------7-7------7-7---------------------|
a-0-0------0-0------0-0---------------------|
e-------------------------------------------|

   A   G   F#  F    A   G   F#  F E A
e--------------------------------------|
b--------------------------------------|
g-----------------------------------2--|
d--7-7-5-5-4-4-3-3--7-7-5-5-4-4-3-2-2--|
a--0-0-0-0-0-0-0-0--0-0-0-0-0-0-0---0--|
e--------------------------------------|


legend

^=bend
~=vibrado
^^=full bend up and bring back down
p=pull off
h=hammer on
s=slide
Comments