The Living End - Rising Up From The Ashes Chords & Tabs

 

Rising Up From The Ashes Chords & Tabs

The Living End Chords & Tabs

Version: 1 Type: Tab 0 ratings
1 star 2 stars 3 stars 4 stars 5 stars
comments

Rising Up From The Ashes Tab

   
Rising Up From The Ashes

/= slide up
\= slide down
p= pull off
h= hammer on
pm= palm mute
b= half bend

Intro: 2 guitars


Rythym
e--------------------------------|
b--------------------------------|
g--------------------------------|
d--5-5-5----5---5---5---5---5----|
a--5-5-5--5-5-5-5-5-5-5-5-5-5----|
e--3-3-3--3-3-3-3-3-3-3-3-3-3----|
          pm.................

e--------------------------------------|
b--------------------------------------|
g---------------------4-4-4-4-4-4-4-4--|
d--5-5-5--------------5-5-5-5-5-5-5-5--|
a--5-5-5--5-5-5-5-5-5-5-5-5-5-5-5-5-5--|
e--3-3-3--3-3-3-3-3-3-3-3-3-3-3-3-3-3--|
          pm.........


Lead
e--------------------------------------------------------------|
b---------------------------------------------------------3/---|
g--4--4--5\4--5--6--7-7----7--7---9\7---9---9--10-10-----------|
d--5--5--7\5--7--8--9-9----9--9--10\9--10--11--12-12-----------|
a--------------------------------------------------------------|
e--------------------------------------------------------------|

Main Riff: 2 guitars

Rythym
   C                           Em
e---------------------------------0--0-0-0-0--0-0-0-0-0-0----|
b-----5--5-5-5-5--5-5-5-5-5-5-----0--0-0-0-0--0-0-0-0-0-0----|
g--5--5--5-5-5-5--5-5-5-5-5-5-----0--0-0-0-0--0-0-0-0-0-0----|
d--5--5--5-5-5-5--5-5-5-5-5-5--2--2--2-2-2-2--2-2-2-2-2-2----|
a--3--3--3-3-3-3--3-3-3-3-3-3--2--2--2-2-2-2--2-2-2-2-2-2----|
e------------------------------0--0--0-0-0-0--0-0-0-0-0-0----|
   F                                        Eb     G
e-----1--1-1-1-1--1-1-1--1--1---------------------------------------------|
b-----1--1-1-1-1--1-1-1--1--1--------5-5-5---------8-8-8-8----------------|
g-----3--3-3-3-3--3-3-3--3--3--5--5--5-5-5--8-8-8--7-7-7-7--5-------------|
d--3--3--3-3-3-3--3-3-3--3--3--5--5--5-5-5--8-8-8--5-5-5-5--5-------------|
a--3--3--3-3-3-3--3-3-3--3--3--3--3--3-3-3--6-6-6-----------3-------------|
e--1--1--1-1-1-1--1-1-1--1--1------------------------------------3-5-3----|


Lead
e-------------------------------------------------------------------8\------|
b--/8--------------/8-------------------------------------------------------|
g------10-9------------10-9--/9----/10--9-7--/12--10~----9--------------9~--|
d------------10--------------------------------------------10---------------|
a-------------------------------------------------------------10------------|
e---------------------------------------------------------------------------|

Verse 1:
   C              Dm             Em             F      G
e-----------------5-5-5--5--5-5--7-7-7--7--7-7------------------------|
b--5-5-5--5--5-5--6-6-6--6--6-6--8-8-8--8--8-8--10-10-10--12-12-12----|
g--5-5-5--5--5-5--7-7-7--7--7-7--9-9-9--9--9-9--10-10-10--12-12-12----|
d--5-5-5--5--5-5--7-7-7--7--7-7--9-9-9--9--9-9--10-10-10--12-12-12----|
a--3-3-3--3--3-3--5-5-5--5--5-5--7-7-7--7--7-7---8--8--8--10-10-10----|
e---------------------------------------------------------------------|
"Just when you thought
that you had it all worked out"

e-----------------7-7-7--7--7-7---------------------------------------|
b--5-5-5--5--5-5--8-8-8--8--8-8--10-10-10---10-10-10-10-10--10--10----|
g--5-5-5--5--5-5--9-9-9--9--9-9--10-10-10---10-10-10-10-10--10--10----|
d--5-5-5--5--5-5--9-9-9--9--9-9--10-10-10---10-10-10-10-10--10--10----|
a--3-3-3--3--3-3--7-7-7--7--7-7---8--8--8---8--8--8--8--8---8---8-----|
e---------------------------------------------------------------------|
"You will be the last one,
to figure it out"

e-----------------5-5-5--5--5-5--7-7-7--7--7-7------------------------|
b--5-5-5--5--5-5--6-6-6--6--6-6--8-8-8--8--8-8--10-10-10--12-12-12----|
g--5-5-5--5--5-5--7-7-7--7--7-7--9-9-9--9--9-9--10-10-10--12-12-12----|
d--5-5-5--5--5-5--7-7-7--7--7-7--9-9-9--9--9-9--10-10-10--12-12-12----|
a--3-3-3--3--3-3--5-5-5--5--5-5--7-7-7--7--7-7---8--8--8--10-10-10----|
e---------------------------------------------------------------------|
"Then you will see,
that in order to be free"

e-----------------7-7-7--7--7-7---------------------------------------|
b--5-5-5--5--5-5--8-8-8--8--8-8--10-10-10--10--10---------------------|
g--5-5-5--5--5-5--9-9-9--9--9-9--10-10-10--10--10---------------------|
d--5-5-5--5--5-5--9-9-9--9--9-9--10-10-10--10--10------3------5-------|
a--3-3-3--3--3-3--7-7-7--7--7-7---8--8--8---8---8--3-3-3--5-5-5-------|
e--------------------------------------------------1-1-1--3-3-3-------|
                                                   pm.    ...


Pre Chorus:

e-----------------------------------------------------0----|
b-----------------1p0-------------------------1p0---0-1/3--|
g--2-2----------------2p0------2-2----------------2--------|
d--2-2--2-2--3-3----------3p2--2-2--2-2--3-3---------------|
a--0-0--2-2--3-3---------------0-0--2-2--3-3---------------|
e-------0-0--1-1--------------------0-0--1-1---------------|
"It doesn't seem to add up
And nothing seems to matter"
[ Tab from: http://www.guitartabs.cc/tabs/t/the_living_end/rising_up_from_the_ashes_tab.html ]
e---------------------------------------------------------------------------|
b---------------------------------------------------------------------------|
g--2-2----------------------------------------------------------------------|
d--2-2--2-2--3-------------------------------5------------------------5-5-5-|
a--0-0--2-2--3--3-3-3-3-3-3-3-3-3-3-3-3-3-3--5--5-5-5-5-5-5-5-5-5-5-5-5-5-5-|
e-------0-0--1--1-1-1-1-1-1-1-1-1-1-1-1-1-1--3--3-3-3-3-3-3-3-3-3-3-3-3-3-3-|
                pm.........................     .....................
"We've out-grown all the anger,
you know that it's not the answer"

Chorus:

e---------------------------------0--0-0-0-0--0-0-0-0-0-0----|
b-----5--5-5-5-5--5-5-5-5-5-5-----0--0-0-0-0--0-0-0-0-0-0----|
g--5--5--5-5-5-5--5-5-5-5-5-5-----0--0-0-0-0--0-0-0-0-0-0----|
d--5--5--5-5-5-5--5-5-5-5-5-5--2--2--2-2-2-2--2-2-2-2-2-2----|
a--3--3--3-3-3-3--3-3-3-3-3-3--2--2--2-2-2-2--2-2-2-2-2-2----|
e------------------------------0--0--0-0-0-0--0-0-0-0-0-0----|
"Rising up from the ashes
you know we never meant to burn"

e-----1--1-1-1-1--1-1-1--1--1---------------------------------------------|
b-----1--1-1-1-1--1-1-1--1--1--------5-5-5---------8-8-8-8----------------|
g-----3--3-3-3-3--3-3-3--3--3--5--5--5-5-5--8-8-8--7-7-7-7--5-------------|
d--3--3--3-3-3-3--3-3-3--3--3--5--5--5-5-5--8-8-8--5-5-5-5--5-------------|
a--3--3--3-3-3-3--3-3-3--3--3--3--3--3-3-3--6-6-6-----------3-------------|
e--1--1--1-1-1-1--1-1-1--1--1------------------------------------3-5-3----|
Rising up from the ashes"

Verse

Pre Chorus

Chorus

Pre Solo:

e-----------------------------------|
b-----------------------------3/----|
g--4--------------------------4/----|
d--5--------------5-5-5-5-5-5-5/----|
a--5--5-5-5-5-5-5-5-5-5-5-5-5-------|
e--3--3-3-3-3-3-3-3-3-3-3-3-3-------|
      pm.........


Solo: Rythym plays Chorus chords

Lead

e----------------------------------------------------------------------------|
b--/8--------------/8---------------------------------------------------8~---|
g------10-9------------10-9--/9----/10--9-7--/12--10~----9-------/9-8~-----9-|
d------------10--------------------------------------------10----------------|
a-------------------------------------------------------------10-------------|
e----------------------------------------------------------------------------|

e--/12--15-15^^v---------------12----12-------------------------|
b----------------15-13~----/12----15-12-10----------------------|
g-------------------------------------------12\11-11\9-9-9-9----|
d---------------------------------------------------------------|
a---------------------------------------------------------------|
e---------------------------------------------------------------|

e---------------------------------------------------------------------|
b------------------------------------------------------5--------------|
g--10p9--------------------9h10p9----------------------5---5b--5/7\5--|
d-------12-10-9----9-10-12--------12-10-10p9---------5-----x---x------|
a---------------12---------------------------10----3-------3b--3/5\3--|
e---------------------------------------------------------------------|

Bridge:

e-----------------------------------------|--3--3-3-3-3-3-3-3-3-3-3-3-3-3-3-|
b-----------------------------------------|--3--3-3-3-3-3-3-3-3-3-3-3-3-3-3-|
g--2-2-2-2--------------------------------|--4--4-4-4-4-4-4-4-4-4-4-4-4-4-4-|
d--2-2-2-2--2-2-2-2--3-3-3-3-3-3-3-3-(x3)-|--5--5-5-5-5-5-5-5-5-5-5-5-5-5-5-|
a--0-0-0-0--2-2-2-2--3-3-3-3-3-3-3-3------|--5--5-5-5-5-5-5-5-5-5-5-5-5-5-5-|
e-----------0-0-0-0--1-1-1-1-1-1-1-1------|--3--3-3-3-3-3-3-3-3-3-3-3-3-3-3-|
"It doesn't seem to add up
And nothing seems to matter
We've out-grown all the anger,
you know that it's not the answer"


e----------------------------|
b----------------------------|
g--5-5-5--5--5--5--5--5------|
d--x-x-x--x--x--x--x--x------|
a--3-3-3--3--3--3--3--3--5\--|
e------------------------5\--|
"Rising up"


Last Chorus:

e---------------------------------0--0-0-0-0--0-0-0-0-0-0----|
b-----5--5-5-5-5--5-5-5-5-5-5-----0--0-0-0-0--0-0-0-0-0-0----|
g--5--5--5-5-5-5--5-5-5-5-5-5-----0--0-0-0-0--0-0-0-0-0-0----|
d--5--5--5-5-5-5--5-5-5-5-5-5--2--2--2-2-2-2--2-2-2-2-2-2----|
a--3--3--3-3-3-3--3-3-3-3-3-3--2--2--2-2-2-2--2-2-2-2-2-2----|
e------------------------------0--0--0-0-0-0--0-0-0-0-0-0----|
"Rising up from the ashes
you know we never meant to burn"

e-----1--1-1-1-1--1-1-1--1--1---------------------------------|
b-----1--1-1-1-1--1-1-1--1--1--------5-5-5---------8-8-8-8----|
g-----3--3-3-3-3--3-3-3--3--3--5--5--5-5-5--8-8-8--7-7-7-7----|
d--3--3--3-3-3-3--3-3-3--3--3--5--5--5-5-5--8-8-8--5-5-5-5----|
a--3--3--3-3-3-3--3-3-3--3--3--3--3--3-3-3--6-6-6-------------|
e--1--1--1-1-1-1--1-1-1--1--1---------------------------------|
"Rising up from the ashes"

e---------------------------------0--0-0-0-0--0-0-0-0-0-0----|
b-----5--5-5-5-5--5-5-5-5-5-5-----0--0-0-0-0--0-0-0-0-0-0----|
g--5--5--5-5-5-5--5-5-5-5-5-5-----0--0-0-0-0--0-0-0-0-0-0----|
d--5--5--5-5-5-5--5-5-5-5-5-5--2--2--2-2-2-2--2-2-2-2-2-2----|
a--3--3--3-3-3-3--3-3-3-3-3-3--2--2--2-2-2-2--2-2-2-2-2-2----|
e------------------------------0--0--0-0-0-0--0-0-0-0-0-0----|
"Rising up from the ashes
you know we never meant to burn"

e----1--1-1-1-1--1-1-1--1--1-------------------------------------------------|
b----1--1-1-1-1--1-1-1--1--1--------5-5-5------------------------------------|
g----3--3-3-3-3--3-3-3--3--3--5--5--5-5-5--3--5--5--5--5--3--5--5--5--5--8-8-|
d-3--3--3-3-3-3--3-3-3--3--3--5--5--5-5-5--3--5--5--5--5--3--5--5--5--5--8-8-|
a-3--3--3-3-3-3--3-3-3--3--3--3--3--3-3-3--1--3--3--3--3--1--3--3--3--3--6-6-|
e-1--1--1-1-1-1--1-1-1--1--1-------------------------------------------------|
"Rising up from the ashes"

Outro:

e--------------------------------------------|
b--5-----------5-----------5-----------5\----|
g--5-----------5-----------5-----------5\----|
d--5----5--5-5-5----5--5-5-5----5--5-5-5\----|
a--3----3--3-3-3----3--3-3-3----3--3-3-3\----|
e--------------------------------------------|


Wheew
Tabbed By: Brock Anderson
Comments