The Living End - Ready Chords & Tabs

 

Ready Chords & Tabs

The Living End Chords & Tabs

Version: 2 Type: Tab 0 ratings
1 star 2 stars 3 stars 4 stars 5 stars
comments

Ready Tab

The Living End - Ready Guitar Tab

It was Tabbed quickly according to the GP4 File I made so it's not perfectly accurate
bout the hammer, pulloffs and stuff
NEvertheless It's more accurate than most of the tabs i could find for this song.
I m not really sure about the chords too, but the arpeggio sounds like the cd.
For corrections/comments please send mail to: lazy_balls@hotmail.com

Thanks and enjoy


                                                          
E||----------0~-------|--------------------------------5h|
B||----------0--------|----------------------------3h5---|
G||----------1--------|------------0h1-2h4-4/5-2h4-------|
D||----------2--------|------2-3-2-----------------------|
A||----------2--------|----3-----------------------------|
E||----------0--------|--5-------------------------------|


                                                                
--4-5h4---4-----------------|--12--12--12--12--12--12--12--12--|
--------6---6-3h4-5----9----|--13--13--13--13--13--13--12--12--|
----------------------------|--14--14--13--13--12--12--14--14--|
----------------------------|----------------------------------|
----------------------------|----------------------------------|
----------------------------|----------------------------------|


                                                                               
--11--11--11--11--12-11-12-13-12------|---------------------------|--0~-------|
--12--12--12--12----------------------|---------------------------|--0~-------|
--11--11--11--11------------------9-8-|--9-10-9-------------------|--1~-------|
--------------------------------------|---------------------------|--2~-------|
--------------------------------------|----------7-6-7-8-7--------|--2~-------|
--------------------------------------|---------------------------|--0~-------|

[ Tab from: http://www.guitartabs.cc/tabs/t/the_living_end/ready_tab_ver_2.html ]
                                                                   
----------|----------|----------|----------|----------|--0~-------|
----------|----------|----------|----------|----------|--0~-------|
----------|----------|----------|----------|----------|--1~-------|
----------|----------|----------|----------|----------|--2~-------|
----------|----------|----------|----------|----------|--2~-------|
----------|----------|----------|----------|----------|--0~-------|


                                                                
--------------------------------5h|--4-5h4---4-----------------|
----------------------------3h5---|--------6---6-3h4-5----9----|
------------0h1-2h4-4/5-2h4-------|----------------------------|
------2-3-2-----------------------|----------------------------|
----3-----------------------------|----------------------------|
--5-------------------------------|----------------------------|


                                                                          
--12--12--12--12--12--12--12--12--|--11--11--11--11--12-11-12-13-12------|
--13--13--13--13--13--13--12--12--|--12--12--12--12----------------------|
--14--14--13--13--12--12--14--14--|--11--11--11--11------------------9-8-|
----------------------------------|--------------------------------------|
----------------------------------|--------------------------------------|
----------------------------------|--------------------------------------|


                                                                             
---------------------------|------------------|--------|-----------0/-------|
---------------------------|------------------|--------|-----------0/-------|
--9-10-9----------1--------|------------------|--------|--2--------1/-------|
------------------2--------|------------------|--------|--2--------2--------|
----------7-6-7-8-2--------|------------------|--------|--0--------2--------|
------------------0--------|------------------|--------|-----------0--------|


                                 
--17----------------|----------||
--17----------------|----------||
--17----------------|----------||
--------------------|----------||
--------------------|----------||
--------------------|----------||
Comments