The Living End - Prisoner Of Society Chords & Tabs

 

Prisoner Of Society Chords & Tabs

The Living End Chords & Tabs

Version: 2 Type: Tab 0 ratings
1 star 2 stars 3 stars 4 stars 5 stars
comments

Prisoner Of Society Tab

   
                    -The Living End-
                  Prisoner Of Society
                Tabbed by Anonymous J.Hendo
                Prime_inertia@hotmail.com
            This is the best I could do - sorry

~=vibrado
ect=keep playing/strumming as needed
^=bend
p=pull off
h=hammer on
p.m=palm mute



Intro#1:

e--------------------------------------|
b--------------------------------------|
g-9-9---------------------2-0-2------2-|
d-9-9---6-6---7-7---8-8---2-0-2-(x4)-2-|
a-7-7---6-6---7-7---8-8--------------0-|
e-----0-4-4-0-5-5-0-6-6-0--------------|



Intro#2:

            A        C        D        E
e---------------------------------------------|
b---------------------------------------------|
g-----------2-2--2---5-5--5---7-7--7---9-9--9-|
d-----------2-2--2---5-5--5---7-7--7---9-9--9-|
a-----------0-0--0---3-3--3---5-5--5---7-7--7-|
e-pickslide-----------------------------------|

   A        C        D        E
e------------------------------------|
b------------------------------------|
g--2-2--2---5-5--5---7-7--7---9-9--9-|
d--2-2--2---5-5--5---7-7--7---9-9--9-|
a--0-0--0---3-3--3---5-5--5---7-7--7-|
e------------------------------------|


Verse:

  A
e-------------------------------------|
b-------------------------------------|
g-2-2---------2-2---------2-2--2------|
d-2-2---------2-2---------2-2--2-(x2)-|
a-0-0-0-0-0-0-0-0-0-0-0-0-0-0--0------|
e-------------------------------------|
      / p.m  \    / p.m  \

  C                  D
e--------------------------------------|
b--------------------------------------|
g-5-5----------------7-7---------------|
d-5-5----------------7-7---------------|
a-3-3-3-3-3-3-3-3-3--5-5-5-5-5-5-5-5-5-|
e--------------------------------------|
     / palm muted \     / palm  muted \

  A
e--------------------------------|
b--------------------------------|
g-2-2---------2-2---------2-2--2-|
d-2-2---------2-2---------2-2--2-|
a-0-0-0-0-0-0-0-0-0-0-0-0-0-0--0-|
e--------------------------------|
      / p.m  \    / p.m  \

Repeat once again from the start of verse.


Chorus:

  A                      C
e----------------------------------------------|
b----------------------------------------------|
g-2-2-2-2-2-2-2-2-2-2-2--5-5-5-5-5-5-5-5-5-5-5-|
d-2-2-2-2-2-2-2-2-2-2-2--5-5-5-5-5-5-5-5-5-5-5-|
a-0-0-0-0-0-0-0-0-0-0-0--3-3-3-3-3-3-3-3-3-3-3-|
e----------------------------------------------|

  F                      G  A
e------------------------3--------------------|
b------------------------3--------------------|
g------------------------0--2-2-2-2-2-2-2-----|
d-3-3-3-3-3-3-3-3-3-3-3--0--2-2-2-2-2-2-2ect--|
a-3-3-3-3-3-3-3-3-3-3-3--2--0-0-0-0-0-0-0-----|
e-1-1-1-1-1-1-1-1-1-1-1--3--------------------|

  D                         Bb
e-2-2-2-2-2-2-2-2-2-2-2-2-2--------------------------|
b-3-3-3-3-3-3-3-3-3-3-3-3-3--------------------------|
G-2-2-2-2-2-2-2-2-2-2-2-2-2-3-3-3-3-3-3-3-3-3-3-3-3-3|
D-0-0-0-0-0-0-0-0-0-0-0-0-0-3-3-3-3-3-3-3-3-3-3-3-3-3|
a---------------------------1-1-1-1-1-1-1-1-1-1-1-1-1|
e----------------------------------------------------|

        F                           A
e-------------------------------------------------|
b-------------------------------------------------|
g-----------------------------------2-2-2-2-2-2-2-|
d-------3-3-3-3-3-3-3-3-3-3-3-3-3-5-2-2-2-2-2-2-2-|
a-0-----3-3-3-3-3-3-3-3-3-3-3-3-3-5-0-0-0-0-0-0-0-|
e---3-1-1-1-1-1-1-1-1-1-1-1-1-1-1-3---------------|

Intro#1 (x2)

Verse


Bridge/Pre Solo:

  A   A#  A
e-----------------------------------|
b-----------------------------------|
g-2-2-3-3-2-2-----------------------|
d-2-2-3-3-2-2-------0-2p0------(x2)-|
a-0-0-1-1-0-0-0h2h4-------3p0-------|
e-----------------------------------|

  D   D#  D
e-2-2-----2-2-----------------|
b-3-3-4-4-3-3-----------------|
g-2-2-3-3-2-2-------0-2p0-----|
d-0-0-1-1-0-0-0h2h4-------3p0-|
a-----------------------------|
e-----------------------------|
[ Tab from: http://www.guitartabs.cc/tabs/t/the_living_end/prisoner_of_society_tab_ver_2.html ]
  A   A#  A
e------------------------------|
b------------------------------|
g-2-2-3-3-2-2------------------|
d-2-2-3-3-2-2-------0-2p0------|
a-0-0-1-1-0-0-0h2h4-------3p0--|
e------------------------------|


  E   F
e--------------------------------|
b-5-5-6-6------------------------|
g-4-4-5-5--4^-4^-4^-4^-2p0-2-0-0-|
d-2-2-3-3------------------------|
a--------------------------------|
e--------------------------------|



Solo:

e------------------5-5-6-6-5-5-4-4-5-5-6-6-7-7-8-|
b---5-7^7^7-7-5----5-5-6-6-5-5-4-4-5-5-6-6-7-7-8-|
g-7-5-7^7^7-7-5----5-5-6-6-5-5-4-4-5-5-6-6-7-7-8-|
d-7-------------7--------------------------------|
a------------------------------------------------|
e------------------------------------------------|

e----------------------------------------------|
b------------10--------------------10----------|
g----12p10---10h11p10-----12p10----10h11p10----|
d-15------12----------12--------12----------12-|
a----------------------------------------------|
e----------------------------------------------|

e-------------------------------|
b----------10-------------------|
g-12p10----10h11p10----12p10----|
d-------12----------12-------12-|
a-------------------------------|
e-------------------------------|

e-------------------------------|
b-10----------------------------|
g-11----------------------------|
d----12-12-12-12-------9h10p9---|
a----------------10p12----------|
e-------------------------------|

e------------------------------|
b------------------------------|
g------------9h10p9----9-10-12-|
d----9-10-12--------12---------|
a-12---------------------------|
e------------------------------|

e-------------------12-15-14-12-----------------|
b----------12-13-15-------------15-14-13-12-----|
g-9-11s14-----------------------------------14s-|
d-----------------------------------------------|
a-----------------------------------------------|
e-----------------------------------------------|


e-----------------------------------------------|
b-----------------------------------------------|
G-9-9-9-9-9-9-9-10-10-10-10-10-10-10-12-12-12-12|
d-----------------------------------------------|
a-7-7-7-7-7-7-7-8--8--8--8--8--8--8--10-10-10-10|
e-----------------------------------------------|


e----------------------------------------------|
b----------------------------------------------|
G-12-12-12-14-14-14-14-14-14-14-14-14-14-14-14-|
d----------------------------------------------|
A-10-10-10-12-12-12-12-12-12-12-12-12-12-12-12-|
e----------------------------------------------|


e------------------------------------------------|
b------------------------------------------------|
G-14-14-15-15-15-15-15-15-15-17-17-17-17-17-17-17|
d------------------------------------------------|
A-12-12-13-13-13-13-13-13-13-15-15-15-15-15-15-15|
e------------------------------------------------|


e--------------12-12-12-12-12-12-12--|
b------------------------------------|
g-19-19-19-19--9--9--9--9--9--9--9---|
d------------------------------------|
a-17-17-17-17------------------------|
e------------------------------------|


E-13-13-13-13-13-13-13-15-15-15-15-15-15-15-|
b-------------------------------------------|
G-10-10-10-10-10-10-10-12-12-12-12-12-12-12-|
d-------------------------------------------|
a-------------------------------------------|
e-------------------------------------------|

               E
e-17-17-17-17----------------------------|
b----------------------------------------|
g-14-14-14-14--9-9-9-9-9-9-9-9-----------|
d--------------9-9-9-9-9-9-9-9-----------|
a--------------7-7-7-7-7-7-7-7-pickslide-|
e------------------------------pickslide-|

Verse (different strumming is used
       play verse chords as much as needed)
      (also leave out the last A chords)

Fill:

e-------------5--5--5---------------------|
b--5-------5--5--5--5--5------------------|
g-----7^9--5-----------5--7^9^7p5---------|
d---------------------------------7-7-----|
a-------------------------------------3-0-|
e-----------------------------------------|



Chorus (different strumming is used)
        play chorus chrods as much as needed)


Outro:

E          E
e---------:---------------|
b---------:---------------|
g-9-----9-:---------------|
d-9-----9-:-2-2-2---2-2-2-|(repeat last
a-7-----7-:-2-2-2---2-2-2-| section as needed)
e---------:-0-0-0-1-0-0-0-|
Comments