The Living End - In The End Chords & Tabs

 

In The End Chords & Tabs

The Living End Chords & Tabs

Version: 1 Type: Tab 0 ratings
1 star 2 stars 3 stars 4 stars 5 stars
comments

In The End Tab

   
                         IN THE END
                       TABBED BY BROCK ANDERSON
/= slide up
\= slide down
h= hammer on
p= pull off
pm= palm mute
x= dead note
~= vibrado


Intro:

e-------7---7--4----4--4--------|-------7---7---------------|
b--9----7---7--5----4--4--------|--9----7---7--9----9-------|
g--9----8---8--6----4--4--------|--9----8---8--9--x-9-------|
d--9--x-9---9--6--x-6--6--(x3)--|--9--x-9---9--9--x-9-------|
a--7--x-9---9--4--x-6--6--------|--7--x-9---9--7--x-7-------|
e-----x-7---7-----x-4--4--------|-----x-7---7----------7-9--|


Verse 1:
   E           B           Cm           Am           Cm            F#
e--------------7----7---7--4----4---4---5----5---5---4----4---4----2---2--2--|
b--9----9---9--7----7---7--5----5---5---5----5---5---5----5---5----2---2--2--|
g--9--x-9---9--8----8---8--6--x-6---6---5----5---5---6--x-6---6----3---3--3--|
d--9--x-9---9--9--x-9---9--6--x-6---6---7--x-7---7---6--x-6---6----4---4--4--|
a--7--x-7---7--9--x-9---9--4--x-4---4---7--x-7---7---4--x-4---4----4---4--4--|
e--------------7--x-7---7---------------5--x-5---5---------------0-2---2--2--|
"Well there's something that I really
Need to say
Have you ever wondered why the
Truth is hard to say"

     Am            E
e----5----5---5-----------------------------|
b----5----5---5----9----9------9----9-------|
g----5----5---5----9--x-9------9--x-9-------|
d----7--x-7---7----9--x-9------9--x-9-------|
a----7--x-7---7----7--x-7------7--x-7-------|
e----5--x-5---5------------7-9---------7-9--|
"Why must it be this way?"



Verse 2:

e--------------7----7---7--4----4---4---5----5---5---4----4---4----2---2--2--|
b--9----9---9--7----7---7--5----5---5---5----5---5---5----5---5----2---2--2--|
g--9--x-9---9--8----8---8--6--x-6---6---5----5---5---6--x-6---6----3---3--3--|
d--9--x-9---9--9--x-9---9--6--x-6---6---7--x-7---7---6--x-6---6----4---4--4--|
a--7--x-7---7--9--x-9---9--4--x-4---4---7--x-7---7---4--x-4---4----4---4--4--|
e--------------7--x-7---7---------------5--x-5---5---------------0-2---2--2--|
"A broken deal
And now it's time to pay
Trying hard to understand
What happened yesterday"


e----5----5---5-----------------------------|
b----5----5---5----9----9------9----9--9----|
g----5----5---5----9--x-9------9--x-9--9----|
d----7--x-7---7----9--x-9------9--x-9--9----|
a----7--x-7---7----7--x-7------7--x-7--7----|
e----5--x-5---5------------7-9--------------|
"But it's the game we play"



Post Verse:

e--6--6--6--6--6--6--6--6--0----------------------|
b--7--7--7--7--7--7--7--7--0-------0--------0-----|
g--8--8--8--8--8--8--8--8--1----1-----3--1-----3--|
d--8--8--8--8--8--8--8--8--2----------------------|
a--6--6--6--6--6--6--6--6--2----------------------|
e--------------------------0----------------------|
"I see the red light signal
calling me home the red lights are."


e--6--6--6--6--6--6--6--6--4--------------------------------|
b--7--7--7--7--7--7--7--7--4--------------------------------|
g--8--8--8--8--8--8--8--8--4-----3--4----3-4-3-4-3-4-3-4----|
d--8--8--8--8--8--8--8--8--6--6--------6--------------------|
a--6--6--6--6--6--6--6--6--6--------------------------------|
e--------------------------4--------------------------------|
"See the red light, and they're
calling me home"



Pre Chorus:

e--0-------------------------------0-----------------------------------|
b--2-------------------------------0-----------------------------------|
g--1-------------------------------1-----------------------------------|
d--2--2-2-2-2-2-2-2-2-2-2-2-2-2-2--2-----------------------------------|
a--0--0-0-0-0-0-0-0-0-0-0-0-0-0-0--2--2-2-2-2-2-2-2-2-2-2-2-2-2-2-2-2--|
e----------------------------------0--0-0-0-0-0-0-0-0-0-0-0-0-0-0-0-0--|
      pm.........................     ...............................
"The powers above us
show that you love us          
Don't take me away..."


e--0--------------------------------|
b--2-------------------------4-4----|
g--1-----------------------4-4-4----|
d--2--2-2-2-2-2-2--4-4-4-4-4-4-4----|
a--0--0-0-0-0-0-0--2-2-2-2-2-2-2----|
e-----------------------------------|
      pm..................
"The powers above us,
show that you love us"




Chorus:

e--0--0--0--0--0--0--0--0----2--2-2--2----4--4--4--4--4--4--4-----|
b--0--0--0--0--0--0--0--0----5--4-4--4----5--5--5--5--5--5--5-----|
g--1--1--1--1--1--1--1--1----4--4-4--4----6--6--6--6--6--6--6-----|
d--2--2--2--2--2--2--2--2----4--4-4--4----6--6--6--6--6--6--6-----|
a--2--2--2--2--2--2--2--2----2--2-2--2----4--4--4--4--4--4--4-----|
e--0--0--0--0--0--0--0--0--------------------------------------0--|
"In the end it's just another day             
and there's no explanation or a..."
[ Tab from: http://www.guitartabs.cc/tabs/t/the_living_end/in_the_end_tab.html ]
 
e--5--5--5--5--5--5--5---4--x--x--4---4-----2--x--x--2----2----|
b--5--5--5--5--5--5--5---5--x--x--5---5-----2--x--x--2----2----|
g--5--5--5--5--5--5--5---6--x--x--6---6-----3--x--x--3----3----|
d--7--7--7--7--7--7--7---6--x--x--6---6-----4--x--x--4----4----|
a--7--7--7--7--7--7--7---4--x--x--4---4-----4--x--x--4----4----|
e--5--5--5--5--5--5--5-------------------0--2--x--x--2----2----|
"plan that you can         
make, make"

  
e--5--5--5--5--5--5--5--5--|
b--5--5--5--5--5--5--5--5--|
g--5--5--5--5--5--5--5--5--|
d--7--7--7--7--7--7--7--7--|
a--7--7--7--7--7--7--7--7--|
e--5--5--5--5--5--5--5--5--|
"And you can't hide a-way"



Verse

Post Verse

Pre Chorus

Chorus



Solo: 

Rythm
G, D, Em, Cm
Em, A, Cm,
Em, A, Cm,
G

Lead
e--------------------------------------------------|
b--15--15--15--15--15--13--12----------------------|
g--12--12--12--12--12--12--12--14--12---11-11------|
d--12--12--12--12--12--12--12--12--12---12-12------|
a--------------------------------------------------|
e--------------------------------------------------|


e---------------------------------------------|
b--------8--7h8p7-----8-----8--10--11--10--8--|
g--9\----7--7-----9-7/8-----8--8---8---8---8--|
d--9\-------------------10--------------------|
a--7\-----------------------------------------|
e--0------------------------------------------|


e---------------------------9\----5--5----|
b--------8\---5--5----------10\---5--5----|
g--------7\---4--4------------------------|
d--------------------5/7~-----------------|
a--7~-------------------------------------|
e-----------------------------------------|


e------------------9--11--12----------------------------|
b--8---10--11--8---x---x---x--------------8-------------|
g--8---8---8---8---6---x---x-----------------9~---------|
d--10--10--10--10-----10---9---13-----------------------|
a------------------------------13----7~------------4h2--|
e-------------------------------------------------------|


e-------------------------------------------------|
b----------2---------------------8--10^v-8--------|
g----------2----2--2h4-2----5/8--------------5/7--|
d----------2----2---------------------------------|
a--0--2/4-----------------------------------------|
e-------------------------------------------------|


e--7-------------------------------------------------3--/5--|
b----8h10p7-8-------0-----------------------------0--3------|
g-------------9-7\5---2p0----------------------0------------|
d-------------------------4-2p0----------0h-2---------------|
a-------------------------------3p2-------------------------|
e-------------------------------------3---------------------|



Bridge
                                
e--0----------------0----|
b--2----------------0----|
g--1----------------1----|
d--2----------------2----|
a--0----------------2----|
e-------------------0----|
"the powers above us...                  
Show that you love us"

  
e--0----------------------------0--------------------|
b--2----------------------------0--------------------|
g--1----------------------------1------------2p1-----|
d--2--------6\-4/-9\---6\--4----2----------------2~--|
a--0----------------------------2--------------------|
e-------------------------------0--------------------|
"the powers above us...                       
Show that you love us..."




Pre-Chorus
  
e--0-------------------------------0-----------------------------------|
b--2-------------------------------0-----------------------------------|
g--1-------------------------------1-----------------------------------|
d--2--2-2-2-2-2-2-2-2-2-2-2-2-2-2--2-----------------------------------|
a--0--0-0-0-0-0-0-0-0-0-0-0-0-0-0--2--2-2-2-2-2-2-2-2-2-2-2-2-2-2-2-2--|
e----------------------------------0--0-0-0-0-0-0-0-0-0-0-0-0-0-0-0-0--|
      pm.........................     ...............................
"The powers above us
show that you love us          
Don't take me away..."


e--0--------------------------------|
b--2-------------------------4-4----|
g--1-----------------------4-4-4----|
d--2--2-2-2-2-2-2--4-4-4-4-4-4-4----|
a--0--0-0-0-0-0-0--2-2-2-2-2-2-2----|
e-----------------------------------|
      pm..................
"The powers above us,
show that you love us"

  Am
--0--0--0--0--0--0--0--0--0--0--0--0--0----|
--1--1--1--1--1--1--1--1--1--1--1--1--1----|
--2--2--2--2--2--2--2--2--2--2--2--2--2----|
--2--2--2--2--2--2--2--2--2--2--2--2--2----|
--0--0--0--0--0--0--0--0--0--0--0--0--0----|
-------------------------------------------|
"show that you love us!


Chorus


Outro:

e-------7---7--4----4--4----|
b--9----7---7--5----4--4----|
g--9----8---8--6----4--4----|
d--9--x-9---9--6--x-6--6----| x4
a--7--x-9---9--4--x-6--6----|
e-----x-7---7-----x-4--4----|
"The powers above us, 
show that you love us
Don't take me away"

e-------7---7--4----4----|
b--9----7---7--5----4----|
g--9----8---8--6----4----|
d--9--x-9---9--6--x-6----| 
a--7--x-9---9--4--x-6----|
e-----x-7---7-----x-4----|
"Don't take me away."

Tabbed By Brock Anderson
QUESTIONS COMMENTS  bock_man_888@hotmail.com
Comments