The Living End - Hold Up Chords & Tabs

 

Hold Up Chords & Tabs

The Living End Chords & Tabs

Version: 1 Type: Tab 0 ratings
1 star 2 stars 3 stars 4 stars 5 stars
comments

Hold Up Tab

                                   HOLD UP
                           TABBED BY:  Brock Anderson




/= slide up
\= slide down
p= pull off
h= hammer on
b= half bend
^= full bend
^^= bend 2 frets
v= bring bend down
~= vibrado
x= dead note
pm= palm mute



Intro:

e-------------------------------------------------------------------------------------|
b-------------------------------------------------------------------------------------|
g-0-(let ring)-----12p0---0-11p0---0-10p0---0-9p0---0-8p0---0-7p0---0-6p0---0-5p0-----|
d--------------5/-------9--------8--------7-------6-------5-------4-------3-------3\--|
a-------------------------------------------------------------------------------------|
e-------------------------------------------------------------------------------------|



Verse 1:

e--------------------------------------------------------|
b--------------------------------------------------------|
g---------7------8-------------------7------8------------|
d--5--x-x-7--x-x-8------3--4--5--x-x-7--x-x-8------3--4--| Repeat as
a--5--x-x-5--x-x-6--x-x-3--4--5--x-x-5--x-x-6--x-x-3--4--| needed
e--3----------------x-x-1--2--3----------------x-x-1--2--|
"Put it in the  bag  boys said the petty thief,
I'm only gonna say it once so don't play dumb with me.
Don't nobody make a move and don't nobody speak,
Everybody on the floor don't mess around with me"



Chorus:

e----3--3---3--3-----3--3---3--3--|
b----4--4---4--4-----3--3---3--3--|
g--5-5--5-5-5--5-----3--3---3--3--|
d--5-5--5-5-5--5---5-5--5-5-5--5--|
a--3-3--3-3-3--3---5-5--5-5-5--5--|
e------------------3-3--3-3-3--3--|
"Put it in the bag boys  
then we're on our way"


e----3--3---3--3---3----|
b----4--4---4--4---3----|
g--5-5--5-5-5--5---3----|
d--5-5--5-5-5--5---5----|
a--3-3--3-3-3--3---5----|
e------------------3----|
"All the money in the bag 
we'll count it up another day"


e----3--3---3--3-----3--3---3--3--|
b----4--4---4--4-----3--3---3--3--|
g--5-5--5-5-5--5-----3--3---3--3--|
d--5-5--5-5-5--5---5-5--5-5-5--5--|
a--3-3--3-3-3--3---5-5--5-5-5--5--|
e------------------3-3--3-3-3--3--|
"Put it in the bag boys  
then we're on our way"

  
e----0--0---0--0---2-2--2-2-2--2-2----|
b----2--2---2--2---3-3--3-3-3--3-3----|
g--2-2--2-2-2--2---2-2--2-2-2--2-2----|
d--2-2--2-2-2--2---0-0--0-0-0--0-0----|
a--0-0--0-0-2--0----------------------|
e-------------------------------------|
But don't go making me mad,
put the money in the bag"



Pre Verse: Same as Verse 1


Verse 2:

e-------------------------------------------------------------|
b-------------------------------------------------------------|
g---------7------8------10--------------7------8------10------|
d--5--x-x-7--x-x-8--x-x-10-------5--x-x-7--x-x-8--x-x-10------|
a--5--x-x-5--x-x-6--x-x-8---x-x--5--x-x-5--x-x-6--x-x-8---x-x-|
e--3------------------------x-x--3------------------------x-x-|
   pm........................................................
"We've gone and made it this far, and we can't run away,
If we make it out alive to see another day, oh then
We'll leg it to the border sneak on past the toll
There ain't no copper gonna put me in the hole


Chorus:

e----3--3---3--3-----3--3---3--3--|
b----4--4---4--4-----3--3---3--3--|
g--5-5--5-5-5--5-----3--3---3--3--|
d--5-5--5-5-5--5---5-5--5-5-5--5--|
a--3-3--3-3-3--3---5-5--5-5-5--5--|
e------------------3-3--3-3-3--3--|
"Put it in the bag boys  
then we're on our way"


e----3--3---3--3---3----|
b----4--4---4--4---3----|
g--5-5--5-5-5--5---3----|
d--5-5--5-5-5--5---5----|
a--3-3--3-3-3--3---5----|
e------------------3----|
"All the money in the bag 
we'll count it up another day"


e----3--3---3--3-----3--3---3--3--|
b----4--4---4--4-----3--3---3--3--|
g--5-5--5-5-5--5-----3--3---3--3--|
d--5-5--5-5-5--5---5-5--5-5-5--5--|
a--3-3--3-3-3--3---5-5--5-5-5--5--|
e------------------3-3--3-3-3--3--|
"Put it in the bag boys  
then we're on our way"

  
e----0--0---0--0---2-2--2-2-2--2-2-----------|
b----2--2---2--2---3-3--3-3-3--3-3-----------|
g--2-2--2-2-2--2---2-2--2-2-2--2-2----2^v-3--|
d--2-2--2-2-2--2---0-0--0-0-0--0-0-----------|
a--0-0--0-0-2--0-----------------------------|
e--------------------------------------------|
But don't go making me mad,
put the money in the bag"



Pre Solo:
[ Tab from: http://www.guitartabs.cc/tabs/t/the_living_end/hold_up_tab.html ]
e--3-----------------------------------------------------|
b--3-----------------------------------------------------|
g--4------7------8-------------------7------8------------|
d--5--x-x-7--x-x-8------3--4--5--x-x-7--x-x-8------3--4--| x2
a--5--x-x-5--x-x-6--x-x-3--4--5--x-x-5--x-x-6--x-x-3--4--| 
e--3----------------x-x-1--2--3----------------x-x-1--2--|



Solo:

e--------------------------------------------------------------------|
b--------------------------------------------------------------------|
g--------------------------------------------------------------------|
d-x-x-x-x-x-x-x-x-x-x-x-x-x-x-x-x------------------------------------|
a-x-x-x-x-x-x-x-x-x-x-x-x-x-x-x-x------------------------------------|
e-3-3-3-3-3-3-3-3-3-3-3-3-3-3-3-3--3-3-3-3-3-3-3-3-3-3-3-3/5/6/8/10--|
  pm.............................


e-----------------------------------------------------------15------|
b--------------------------------------------------------15----15---|
g--------------------------------------------10-12-14/15------------|
d--5-5-5-5-7-7-7-7-8-8-8-8-10-10-10-10-10/12------------------------|
a-------------------------------------------------------------------|
e-------------------------------------------------------------------|


e----------------------------------------------------------------------------------|
b--8----8----8----10---11-----13-----15--15---15---15---15---15---15---15----------|
g--10^^-10^^-10^^-12^^-13^^---15^^---17^-17^^-17^^-17^^-17^^-17^^-17^^-17^^--------|
d----------------------------------------------------------------------------------|
a-----------------------------------------------------------------------------14\--|
e-----------------------------------------------------------------------------14\--|


e--------------3----------------3-----------------------------------------------------|
b--4---4---4-----4--3---3---3-----3--1---1---1---1------------------------------------|
g----5---5---5--------3---3---3--------0---0---0-----3p0-0-0-3p0-0-0-3p0-0-0-3p0-0-0--|
d-------------------------------------------------------------------------------------|
a-------------------------------------------------------------------------------------|
e-------------------------------------------------------------------------------------|


e------------------------------------------------------------------------------|
b-----------------4--3/----------------------------------8-----2----5----8-----|
g-----------3--2---------10^^--12-12-12-12--10^^--12-12--10^^--4^^--7^^--10^^--|
d-----1--0---------------------------------------------------------------------|
a--3---------------------------------------------------------------------------|
e------------------------------------------------------------------------------|


e-------------------------------------------11----------11--------14----------14-----------15--|
b----------7-7-7-7-10-10-10-10-13-13-13-13-----13p10h13----13p10/----16p13h16----16--------15--|
g--7-7-7-7--------------------------------------------------------------------------14/15--15--|
d----------------------------------------------------------------------------------------------|
a----------------------------------------------------------------------------------------------|
e----------------------------------------------------------------------------------------------|



Bridge:

e--17^v~--|-------------------------------------3--3--|
b---------|-------------------------------------3--3--|
g---------|-------------------------------------3--3--|
d---------|--5------5---5---5---5---------------5--5--|
a---------|--5------5---5---5---5--5-5-5-5-5-5--5--5--|
e---------|--3------3---3---3---3--3-3-3-3-3-3--3--3--|
                                   pm.........
"We're almost at the end there's an open road ahead, 
freedom's just another 30 miles away.
But luck came undone, as we jumped the gun   
now, all, we can do is run


Chorus


Outro:

e--------------------------------------------------------|
b--------------------------------------------------------|
g---------7------8-------------------7------8------------|
d--5--x-x-7--x-x-8------3--4--5--x-x-7--x-x-8------3--4--| x2
a--5--x-x-5--x-x-6--x-x-3--4--5--x-x-5--x-x-6--x-x-3--4--| 
e--3----------------x-x-1--2--3----------------x-x-1--2--|

e---------------------------------------------------------------------3~W
b---------------------------------------------------------------------3~H
g--12p0---0-11p0---0-10p0---0-9p0---0-8p0---0-7p0---0-6p0---0-5p0-----3~A
d-------9--------8--------7-------6-------5-------4-------3-------3\--5~M
a---------------------------------------------------------------------5~M
e---------------------------------------------------------------------3~Y


Tabbed By Brock Anderson
Questions? Comments?  bock_man_888@hotmail.com
Comments