The Living End - Hold Up Chords & Tabs

 

Hold Up Chords & Tabs

The Living End Chords & Tabs

Version: 1 Type: Bass Tab

Hold Up Bass Tab

Intro/Fill 1

G|----------------------------------------------------------|
D|----------------------------------------------------------|
A|----------------------------------------------------------|
E|----3-----0-2-3-----0-2-3-------0-2-3--------0-2----------|

As soon as you play the last note of the intro go directly to this

Verse

G|------------------------------------------------------------|
D|------------------------------------------------------------|
A|----5-6----------5-6----------5-6-----------5-6-------------|
E|--3------0-2-3--------0-2-3-------0-2-3--------0-2-3--------|

Chorus
[ Tab from: http://www.guitartabs.cc/tabs/t/the_living_end/hold_up_btab.html ]
G|----------------------------------------------------------------------|
D|--------------------------------------------------0000000-------------|
A|---3333333-------------3333333-----3333333---------------0000000-3----|
E|----------------3333333-----------3--------3333333----------------3---|

“Bridge” (“were almost at the end there’s an open road ahead”)

G|----------------------------|
D|----------------------------|
A|----------------------------|
E|----3----3----3---3----3----|


Fill 2

G|-------------------------|
D|-------------------------|
A|----5--------6-------6---|
E|--------2--3---2--3------|

That’s it, I don’t have time to do the timing (ironic isn’t it), so figure that out for yourself.