The Living End - Headlines Chords & Tabs

 

Headlines Chords & Tabs

The Living End Chords & Tabs

Version: 1 Type: Bass Tab

Headlines Bass Tab

-------------------------------------------------------------------------------
			     Headlines - The Living End
-------------------------------------------------------------------------------

Tabbed By : TLE Bass Player
e-mail: afi8@westnet.com.au

Tuning: Standard

Intro
G|---------------------------------------------------------------------------|
D|---------------------------------------------------------------------------|
A|---------------------------------------------------------------------------|
E|111111111111111-etc--------------------------------------------------------|
[ Tab from: http://www.guitartabs.cc/tabs/t/the_living_end/headlines_btab.html ]
Verse
G|---------------------------------------------------------------------------|
D|---------------------------------------------------------------------------|
A|-------44-11---------------------------------------------------------------|
E|-11-44---------------------------------------------------------------------|

Chorus
G|---------------------------------------------------------------------------|
D|---------------------------------------------------------------------------|
A|-------55-22---------------------------------------------------------------|
E|-22-55---------------------------------------------------------------------|

One of my favorite songs by The Living End. The songs off their first ep "Hellbound". 
Pretty easy song. This is right. Exactly what Scott Owen plays. Thanks for looking at 
this. Please rate :D thanks :D