The Living End - Dont Shut The Gate Chords & Tabs

 

Dont Shut The Gate Chords & Tabs

The Living End Chords & Tabs

Version: 1 Type: Tab 0 ratings
1 star 2 stars 3 stars 4 stars 5 stars
comments

Dont Shut The Gate Tab

   
                 -THE LIVING END-
                Dont Shut The Gate

             Transcribed By Mick Fryar
              manumick20@yahoo.com

This was difficult to tab (to set out) so it may
be a bit confusing reading it, Im sorry
but everything is here you need in the song,
so enjoy!



~=bend/vibrado
h=hammer on
p=pull off
()=harmonic


Main Riffs(Verse):
      
A)
e----------------------|
b----------------------|
g----------------------|
d--2---------------2---|
a--2-----0h2p0-----0---|
e--0--3---------3------|

B)                      !REPEAT WHAT YOU NEED TO!
e----------------3-----|
b----------------3-----|
g----------------0-----|
d--3--2----------0-----|
a--1--0--0h1-----------|
e-------------0--3-----|

Main Riff A

Main Riff B ,ect


C)
followed by
e------------------------|
b------------------------|
g------------------------|
d------------------------|
a-1p0----1p0----1p0------|
e-----3------3------3-ect|

D)
e-------------------------------------|
b-------------------------------------|
g--4------4------4------4------4------|
d----3------3------3------3------3----|
a------2------2------2------2------2--|
e-------------------------------------|

Main Riff A

Main Riff D

Main Riff A

Main Riff D

E)
e---------------------|
b---------------------|
g---------------------|
d--5-2----------------|
a--3-0-3-4-6-7-8-9----|
e------1-2-3-5-6-7----|


Chorus:

e-------------------------------|
b-------------------------------|
g--5-5-5------------------------|
d--5-5-5--5-5-5--4-4-4--3-3-3---|
a--3-3-3--5-5-5--4-4-4--3-3-3---|
e---------3-3-3--2-2-2--1-1-1---|

Main Riff A

Chorus

Main Riff: F

e------------------------------------------|
b------------------------------------------|
g------------------------------------------|
d--------------2--2-----------------2--2---|
a--2--2-----0--0--0-----2--2-----0--0--0---|
e--0--0--3----------3---0--0--3----------3-|

[ Tab from: http://www.guitartabs.cc/tabs/t/the_living_end/dont_shut_the_gate_tab.html ]
e-------------------------------------|
b-----------------------6~-6~-6~------|
g-----------------------8~-8~-8~------|
d--------------2--2-------------------|
a--2--2-----0--0--0--------------1----|
e--0--0--3----------3--------------3--|


Main Riff D

Main Riff F (with out those bends on the B-G
              strings on the end)

Main Riff D

Main Riff F

Main Riff E

Chorus

Main Riff A+B

Chorus


Solo:

e--------------------------------------------------|
b--------------------------------------------------|
g--------------------------------------------------|
d--------------------------------------------------|
a--7p0-8p0-9p0-10------------0-0----0-1-1-0----0-0-|
e-------------------0-0-3~-0-----3~---------3~-----|


e-------------------------------|
b-------------------------------|
g---------------------7-6---6-5-|
d-------5---7-7-5-7-8-----7-----|
a-5-6-7---7---------------------|
e-------------------------------|

e-------3-0-0-0--5-0-0-0--6-0-0-0--5-0-0-0-----|
b--6-5-----------------------------------------|
g----------------------------------------------|
d----------------------------------------------|
a----------------------------------------------|
e-------------------------------------------6s-|


e------------(12)------------------------------|
b---11--10---(12)------------------------------|
g---10---9---(12)------------------------------|
d---11--10---(12)------------------------------|
a------------(12)with whammy bar---8-7---7---5-|
e------------(12)----------------0-6-5-0-5-0-3-|

pause (Main Riff A)

e----------------------------------------------------|
b--15~--15-14-12----12-------------------------------|
g----------------14----14p12-------------------------|
d-----------------------------14---------------------|
a-----------------------------------7-0-6-0-5-0-4-0-3|
e----------------------------------------------------|

Main Riff A+B repeat as needed.

Main Riff C

End On E.


Comments