The Living End - Closing In Chords & Tabs

 

Closing In Chords & Tabs

The Living End Chords & Tabs

Version: 1 Type: Bass Tab 0 ratings
1 star 2 stars 3 stars 4 stars 5 stars
comments

Closing In Bass Tab

   
the living end

closing in

by Daniel Hardy:
              
hardys@spiderweb.com.au


.=staccato

r=rest

*=Repeat section


Intro

|------|------|-----.---|---|------------|------------|---------|
|------|------|-.-.-3-.-|-5-|------------|------------|---------|
|------|-8-11-|-5-7---5-|---|-5-let ring-|-5-let ring-|-----4-4-|
|-7-10-|------|---------|---|------------|------------|-5-5-----|


|---------|
|-----5-5-|
|-7-7-----|
|---------|


  A
|----------|---------|---------|---------|---------|----------|
|*---------|---------|---------|---------|---------|----------|
|*-5-5-5-5-|-1-1-3-3-|-5-5-5-5-|---------|---------|-6-6-5-5--|
|----------|---------|---------|-2-2-5-5-|-3-3-1-1-|----------|


|-.---.---.--------|
|-6-.-4-.-2-----7-*|
|---4---2---.-.---*|
|-----------5-5----|


  B
|---------|---------|---------|---------|---------|---------|
|---------|---------|---------|---------|---------|---------|
|-5-5-5-5-|-5-5-5-5-|-7-7-7-7-|-7-7-7-7-|-8-8-8-8-|-8-8-8-8-|
|---------|---------|---------|---------|---------|---------|
[ Tab from: http://www.guitartabs.cc/tabs/t/the_living_end/closing_in_btab.html ]
                                         ___________________
                      C                 |1                  |
|---------|---------|---------|---------|---------|---------|
|---------|---------|---0-3-0-|---2-5-2-|---------|---------|
|-r-r-r-r-|-r-r-r-r-|-1-------|-3-------|---3-7-3-|---7-5-3-|
|---------|---------|---------|---------|-5-------|-5-------|

 _________
|2
|---------|---------|---------|---------|---------|---------|---|
|-------0-|-1-0-1-3-|---------|---------|---------|---------|-0-|
|-3-2-3---|---------|-1-r-r-r-|-3-r-r-r-|-6-r-r-r-|-9-r-r-r-|-5-|
|---------|---------|---------|---------|---------|---------|---|


  D (Half time feel)                    x4
|----------|---------|---------|----------|---------|-----------|
|*---------|---------|---------|---------*|---------|*---------*|
|*---------|---------|---------|---------*|---------|*-r-r-r-r-*|
|-3333333--|-2222222-|-5555555-|-6666666--|-666-r-r-|-----------|


                                           x8                  x4
|-----|-----|-----|-----|--------------------|-------------------|
|-----|-----|-----|-----|*-7-7-7-7-7-7-7-7--*|*-----------------*|
|--A--|--B--|--C--|--A--|*------------------*|*-5-5-5-5-5-5-5-5-*|
|-----|-----|-----|-----|--------------------|-------------------|
Comments