The Living End - Blood On Your Hands Chords & Tabs

 

Blood On Your Hands Chords & Tabs

The Living End Chords & Tabs

Version: 1 Type: Bass Tab 0 ratings
1 star 2 stars 3 stars 4 stars 5 stars
comments

Blood On Your Hands Bass Tab

                       The Living End
                     Blood on your hands 
 
 this song wasnt done by me i found it as the tabber anounymous
INTRO: 
 
g---------------------------------------------------|
d---------------------------------------------------|(x17) 
a---------------------7--7---------------------7--7-|
e--5--5-0--5---5-----------5--5-0--5---5------------|
 
then...
 
g-------------------------------------------------|
d-------------------------------------------------|
a-----------------7---6---5--5--3--3-5----5--5--3-|
e--5--5-0--5--------------------------------------|
 

g----------------------------------|
d----7--6--------------------------|
a------------------------7--7------|
e-----------5--5-0--5---5--------5-|

PRE CHORUS:
"Life is a sin"
 
g---------------------------------------|
d---------------------------------------|
a--------3--------3--------3------------|
e---3--------3--------3--------5--6-5---|
 
 
CHORUS:
 
g---------------------------------------------|
d---------------------------------------------|
a--5--5-5-5--5-5--5--5------------------------|
e------------------------------6--6-6--6-6--6-|


g-------------------------------------------|
d-------------------------------------------|
a------------------------------------3--3---|
e--6--5--3----3-3-3--3--3--3-----------5--5-|
[ Tab from: http://www.guitartabs.cc/tabs/t/the_living_end/blood_on_your_hands_btab.html ]
play twice, then play
 
g-----------------|
d-----------------|
a--5--3--0--1-----|
e-----------------|
 
VERSE:
 
 
PRE CHORUS:
 
 
CHORUS:
 
 
BRIDGE:
 
g-------------------------------------------------|
d-------------------------------------------------|
a-------------------------5----7----9--10--12-----|
e--5----6----7----8-------------------------------|
 
The next part is just guitar and drums for a bit.
So I'll continue from where Chris start's singing,
"Cause the scared cried out....."
 
g-----------------------------------------------------|
d-----------------------------------------------------|
a--0-0---0-0-0---0-0-0---0-0-0-------------------0-0--|
e-----------------------------------------3-3----3--3-|
 

g----------------------------------|
d----------------------------------|
a-0--0-1-1----1--0------1--0-------|
e------------------------------3---|
 

g-----------------------------------------------------------------|
d-----------------------------------------------------------------|
a--------------------------0-0--0-0-0--0-0-0--0-0-0--0-1-1--1-1-1-|
e-3-3--3-3-3--3-3-3--3-3-3--3-------------------------------------|

g-------------------------------------------------------------|
d-------------------------------------------------------------|
a--1-1-1--1-1-1-----0--0-0-0-0-1-0--0-0-0-0-1-0--0-0-0-0-1-0--|
e-------------------------------------------------------------|
 
 
CHORUS:
 
 
OUTRO:
 
g-----------------------------------------|
d-----------------------------------------|  
a--5-5--5-5-5--5-5-5--5-5-5--5-4-4--4-4-4-|
e-----------------------------------------|

g------------------------------------------------------------|
d------------------------------------------------------------|  
a-4-4-4--4-4-4--4-3-3--3-3-3--3-3-3--3-3-3--3-2- Let it ring.|
e------------------------------------------------------------|

Play it twice, then finish on
 
g-------------|
d-------------|
a--5--3--0-0--|
e-------------|
Comments