The Like - Under The Paving Stones Chords & Tabs

 

Under The Paving Stones Chords & Tabs

The Like Chords & Tabs

Version: 1 Type: Bass Tab

Under The Paving Stones Bass Tab

Band - The Like
Song -Under the Paving Stones
Album - Are You Thinking What I'm Thinking?
Track - 7
Bassist - Charlotte Froom

Verse

G-----------------------|
D-7-6-------------------|
A-----7-6--7--4~--2-4-0-|
E-----------------------| x1

Break

G-----------------------|
D-7-6-------------------|
A-----7-6--7--4~------0-|
E-----------------------| x3

G-----------------------|
D-7-6-------------------|
A-----7-6--7------------|
E-----------------------|

Pre Chorus
G-----------------------------------------------------------------|
D-----------------2-2---------------------------------------------|
A-2-2-2-2-2-2-2-2-----2-2-0-0-2-2-4-4-4-4-4-4-4-4-4-4-4-4-4-4-4-4-|
E-----------------------------------------------------------------|

G-----------------------------------------------------------------|
D-----------------2-2---------------------------------------------|
A-2-2-2-2-2-2-2-2-----2-2-0-0-2-2-4-4-4-4-4-4-4-4-6-6-6-6-6-6-6-6-|
E-----------------------------------------------------------------|

Chorus
G-----------------------------------------------------------------|
D-----------------------------------------------------------------|
A---------------------------------2-2-2-2-2-2-2-0-2-2-4-4-5-5-7-7-|
E-0-0-0-0-0-0-0-0-0-0-2-2-3-3-5-5---------------------------------|

G-------------------------------------------------------------------|
D-------------------------------------------------------------------|
A-5-5-5-5-5-5-5-0-5-5-9-9-11-11-12-12-7-7-7-7-7-7-7-0-12--11--9--7--|
E-------------------------------------------------------------------|
[ Tab from: http://www.guitartabs.cc/tabs/t/the_like/under_the_paving_stones_btab.html ]
G-----------------------------------------------------------------|
D-----------------------------------------------------------------|
A-2-2-2-2-2-2-2-2-----------------2-2-2-2-2-2-2-0-2-2-4-4-5-5-7-7-|
E-----------------0-0-2-2-3-3-5-5---------------------------------|

G-------------------------------------------------------------------|
D-------------------------------------------------------------------|
A-5-5-5-5-5-5-5-0-5-5-9-9-11-11-12-12-7-7-7-7-7-7-7-0-12--11--9--7--|
E-------------------------------------------------------------------|

G--------|
D--------|
A--7~~~--
E--------

Break

Verse
G-----------------------|
D-7-6-------------------|
A-----7-6--7--4~--2-4-0-|
E-----------------------| x1

Break

G-----------------------|
D-7-6-------------------|
A-----7-6--7--4~------0-|
E-----------------------| x3

G-----------------------|
D-7-6-------------------|
A-----7-6--7------------|
E-----------------------|

Pre Chorus: As before

Chorus: As before, but without the last A-7~~~---

Bridge
G---------------------------------------------------------------------------------|
D---------------------------------------------------------------------------------|
A-14-14-14-14-13-13-13-13-12-12-12-12-11-11-11-11-9-9-9-9-9-9-9-9-----------------|
E-----------------------------------------------------------------9-9-9-9-9-9-9-9-|

G---------------------------------------------------------------------------------|
D-14-14-14-14-13-13-13-13-12~----------11~--------9~------------------------------|
A-----------------------------------------------------------------9~--------------|
E---------------------------------------------------------------------------------|

G-------------------------------------------|
D-------------------------------------------|
A-----------------1-1-1-1-1-1-1-1-4~~~~-----|
E-2-2-2-2-2-2-2-2---------------------------|

Break after bridge

Prechorus
Chorus - WITH the A-7~~~---

Ending:

G-----------------------------------|
D-7-6-------------------------------|
A-----7-6--7--4~--2-4-0~------------|
E---------------------------4-5-4~--|