The Like - So Ill Sit Here Waiting Chords & Tabs

 

So Ill Sit Here Waiting Chords & Tabs

The Like Chords & Tabs

Version: 2 Type: Tab 0 ratings
1 star 2 stars 3 stars 4 stars 5 stars
comments

So Ill Sit Here Waiting Tab

The Like - (So I'll sit here) waiting (13 SOundtrack version)

www.ilikethelike.com
This is the version from the 13 soundtrack, not album version!!!!

Intro/main riff

||--------------------------------------------------||
||-----9----9-----9-----9-----9-----9-----9-----9---||
||--9----9-----8-----8-----7-----7-----8-----8------||
||--------------------------------------------------||
||--------------------------------------------------||
||--------------------------------------------------||
[ Tab from: http://www.guitartabs.cc/tabs/t/the_like/so_ill_sit_here_waiting_tab_ver_2.html ]
||--------------------------------------------------||
||-----9----9-----9-----9-----9-----9-----9-----9---||
||--9----9-----8-----8-----7-----7-----8-----8------||
||--------------------------------------------------||
||--------------------------------------------------||
||--------------------------------------------------||

||--------------------------------------------------||
||-----9----9-----9-----9-----9-----9-----9-----9---||
||--9----9-----8-----8-----7-----7-----8-----8------||
||--------------------------------------------------||
||--------------------------------------------------||
||--------------------------------------------------||

||--------------------------------------------------||
||-----9----9-----9-----9-----9-----9-----9-----9---||
||--9----9-----8-----8-----7-----7-----8-----8------||
||--------------------------------------------------||
||--------------------------------------------------||
||--------------------------------------------------||

This is the figure that is played in the song.
It's played as the intro and between chorus and verses.
It's really easy and fun to play. Enjoy!

Comments