The Like - All Is Lost Chords & Tabs

 

All Is Lost Chords & Tabs

The Like Chords & Tabs

Version: 1 Type: Bass Tab

All Is Lost Bass Tab

   
Band - The Like
Song - All is Lost
Album - June Gloom (Single)
Track - 2
Bassist - Charlotte Froom

Intro:
G-------------------------------------------|
D-------2~~~~------2~~~~--------------------|
A-----2----------2--------------------------|
E-----------------------------7/0~~~~-------|

Verse 1:
G-----------------------------------------|
D-----------------------------------------|
A-----------3~~~~---------------5~~~~-----|
E-0~~~~---------------3~~~~---------------|

G-----------------------------------------|
D-----------------------------------------|
A-2~~~~-----3~~~~---------------5---5--55-|
E---------------------3~~~~---------------|

Chorus:
G-------------------------------------------------|
D-------------------------------------------------|
A-2-2-----------0-3-3-3-3-3-3-3-3-5-5-5-5-5-5-5-5-|
E-----3-3-3-3-3-----------------------------------|

G------------------|
D-4-4-4-4-5-4-2-0--|
A------------------|
E------------------|

G-------------------------------------------------|
D-------------------------------------------------|
A-2-2-----------0-3-3-3-3-3-3-3-3-5-5-5-5-5-5-5-5-|
E-----3-3-3-3-3-----------------------------------|

G------------------|
D-4-4-4-4-5-7-5-4--|
A------------------|
E------------------|

Verse 2:
G-----------------------------------------|
D-----------------------------------------|
A-----------3-3-3-33------------5-5-5-55--|
E-0-0-0-00------------3-3-3-33------------|

G------------------------------------------|
D------------------------------------------|
A-2-2-2-22--3-3-3-33------------5--5-5-5-5-|
E---------------------3-3-3-33-------------|

Chorus 2:

G-------------------------------------------------|
D-------------------------------------------------|
A-2-2-----------0-3-3-3-3-3-3-3-3-5-5-5-5-5-5-5-5-|
E-----3-3-3-3-3-----------------------------------|

G------------------|
D-4-4-4-4-5-7-5-4--|
A------------------|
E------------------|

Repeat Chorus 2

Short fill:

G---------|
D---------|
A---------|
E-3---3---|

Verse 3:
G-----------------------------------------|
D-----------------------------------------|
A-----------3-3-3-33------------5-5-5-55--|
E-0-0-0-00------------3-3-3-33------------|

G-4-4-2-2-------------------------|
D---------5-5-4-4-2-2-------------|
A---------------------5-5-3-3-2-2-|
E---------------------------------|
[ Tab from: http://www.guitartabs.cc/tabs/t/the_like/all_is_lost_btab.html ]
G----------------------|
D----------------------|
A------------5-5-5-55--|
E--3-3-3-33------------|

Chorus 3:

G-------------------------------------------------|
D-------------------------------------------------|
A-2-2-----------0-3-3-3-3-3-3-3-3-5-5-5-5-5-5-5-5-|
E-----3-3-3-3-3-----------------------------------|

G-----------------|
D-----------------|
A-0-0-0-0-0-0-0-0-|
E-----------------|

G-------------------------------------------------|
D-------------------------------------------------|
A-2-2-----------0-3-3-3-3-3-3-3-3-5-5-5-5-5-5-5-5-|
E-----3-3-3-3-3-----------------------------------|

G-----------------|
D-----------------|
A-0-0-0-0-0~~~----|
E-----------------|


Bridge:
G----------------|
D--444-2---------|
A--------2-------|
E----------7/0---|

G--555-4----------|
D--------5--------|
A----------7/3----|
E-----------------|

G----------------|
D--444-2---------|
A--------2-------|
E----------7/0---|

G--555-4---------------------------------|
D--------5-------------------------------|
A----------7/3-3-5-5-7-7-9-9-10-10-12-12-|
E----------------------------------------|

Verse 4:

G-----------------------------------------|
D-----------------------------------------|
A-----------3-3-3-33------------5-5-5-55--|
E-0-0-0-00------------3-3-3-33------------|

G-4-4-2-2-------------------------|
D---------5-5-4-4-2-2-------------|
A---------------------5-5-3-3-2-2-|
E---------------------------------|

G----------------------|
D----------------------|
A------------5-5-5-55--|
E--3-3-3-33------------|

Final Chorus:
G-------------------------------------------------|
D-------------------------------------------------|
A-2-2-----------0-3-3-3-3-3-3-3-3-5-5-5-5-5-5-5-5-|
E-----3-3-3-3-3-----------------------------------|

G------------------|
D-4-4-4-4-5-7-5-4--|
A------------------|
E------------------|

G-------------------------------------------------|
D-------------------------------------------------|
A-2-2-----------0-3-3-3-3-3-3-3-3-5-5-5-5-5-5-5-5-|
E-----3-3-3-3-3-----------------------------------|

G------------------|
D-4-4-4-4-5-7-5-4--|
A------------------|
E------------------|

G---------------------------------------------|
D-----------------------------------4-5-4-4-2-|
A-2-2-2-22--3-3-3-33------------5-5-----------|
E---------------------3-3-3-33----------------|

G---------|
D-2~~~~---|
A---------|
E---------|