The Last Ear Of Corn - Corn Chip Blues Chords & Tabs

 

Corn Chip Blues Chords & Tabs

The Last Ear Of Corn Chords & Tabs

Version: 1 Type: Tab 0 ratings
1 star 2 stars 3 stars 4 stars 5 stars
comments

Corn Chip Blues Tab

The Corn Chip Blues 
Words By Zack Silver
Music By Ellis Robinson

Intro
-3-3-3-3--2-2--1-1-----------0-3-0-3-0---------
-4-4-4-4--3-3--2-2-----------0-3-0-3-0---------
-3-3-3-3--2-2--1-1--0-h1-p0-------------2/3-2-0
2----------------------------------------------
-----------------------------------------------
-----------------------------------------------

Verse
[ Tab from: http://www.guitartabs.cc/tabs/t/the_last_ear_of_corn/corn_chip_blues_tab.html ]
----------------------------------------------------
----------------------------------------------------
----------------------------------------------------
--------------7-7-9-7-(x2)---------------7-7-9-7-(x4)
-7-7-9-7------5-5-5-5------7-7-9-7-(x4)--5-5-5-5----
-5-5-5-5-(x2)--------------5-5-5-5------------------

----------------------------------------------------------------
----------------------------------------------------------------
----------------------------------------------------------------
---------------9--9--9--9---7--7--7--7---------------9--9--9--9-
---------------7--7--7--7---5--5--5--5---------------7--7--7--9-
-7-7-9-7-(x4)----------------------------7-7-9-7-(x2)-----------
-5-5-5-5---------------------------------5-5-5-5----------------
Comments