The Kooks - She Moves In Her Own Way Chords & Tabs

 

She Moves In Her Own Way Chords & Tabs

The Kooks Chords & Tabs

Version: 3 Type: Tab

She Moves In Her Own Way Tab

No one's tabbed the solo yet, so I thought I'd give it a go. Here goes...
[ Tab from: http://www.guitartabs.cc/tabs/t/the_kooks/she_moves_in_her_own_way_tab_ver_3.html ]
e|---------------------3-b5-r5p3---3---b7-r7-5-7-----------------10-b17------|
B|-------------3---3-5-----------5---3-----------8-------8-10/12-------------|
G|-------0-2/4---4---------------------------------9-7-9---------------------|
D|-2-0-2---------------------------------------------------------------------|
A|---------------------------------------------------------------------------|
E|---------------------------------------------------------------------------|

e|-r17p15--------------------------------------------------------------------|
B|--------17-15-13-12-10-12--------------------------------------------------|
G|---------------------------------------------------------------------------|
D|---------------------------------------------------------------------------|
A|---------------------------------------------------------------------------|
E|---------------------------------------------------------------------------|

And there it is!