The Kills - Cat Claw Chords & Tabs

 

The Kills Chords & Tabs

Version: 1 Type: Tab 0 ratings
1 star 2 stars 3 stars 4 stars 5 stars
comments

Cat Claw Tab

   
Tabbed by J master W

New band "the KIlls" See WWW.thekills.tv 
Album "Keep on your mean side"
Main Riff:
e----------------
B----------------
G----------------
D--12--10--9--4--
A--12--10--9--4--
E--10--8---7--2--

Pre-chorus:
e-----------------
B-----------------
G-----------------
D-2-2-2-2-2-2-2-2-
A-2-2-2-2-2-2-2-2-
E-0-0-0-0-0-0-0-0-

Chorus:
e-------------------
B-------------------
G-------------------
D-4-4-4-4-4-4-------  X6
A-4-4-4-4-4-4-4-2-0-
E-2-2-2-2-2-2-------

On the third and sixth time Play:
e-----------------------------------
B-----------------------------------
G-----------------------------------
D-4-4-4-4-4-4-----------------------
A-4-4-4-4-4-4-4-2-0--4b--2-4b--2----
E-2-2-2-2-2-2-------------------4-2-

Instrumental bit inbetween the last two choruses:
e---X-X---X-X-X-X-------------------
B---X-X---X-X-X-X-------------------
G---X-X---X-X-X-X-------------------
D-4-X-X-4-X-X-X-X-2-4-2-4-2-4-2-4--- X4
A-4-X-X-4-X-X-X-X-2-4-2-4-2-4-2-4---
E-2-X-X-2-X-X-X-X-0-2-0-2-0-2-0-2---
[ Tab from: http://www.guitartabs.cc/tabs/t/the_kills/cat_claw_tab.html ]
Lyrics: (these might not be 100% correct and you'll have to look for
timings yourself but they'll do)

Its time to stand on dull fingers
and the band
tell me sugar how you felt now
c'mon sugar, tell  now
stand your face until its soot 
on fire
Won't keep up with the law 
such a long walk
If all goes well you won't have nothing
so tell you dead wrong
dead wrong
and they're long gone hang out for memory thang
question, tell me what she done 
just one cos i can't see

Chorus:
So... One , two and
you got it i want it (x6)
Ohh (x6)

Got ma hand cauht in a cat claw
scream, everyones that time 
moats around there talkin trees you know.
Never know who's comin might easy, be meanon, 
give up for my love cos that's too much
fuck.

Chorus:
So... One , two and
you got it i want it (x6)
Ohh (x6)

Its time to stand on dull fingers
and the band
tell me sugar how you felt now
c'mon sugar, tell  now
stand your face until its soot 
on fire
Won't keep up with the law 
such a long walk

Chorus:
So... One , two and
you got it i want it (x6)
Ohh (x6)

(Instrumental)

Chorus:
So... One , two and
you got it i want it (x6)
Ohh (x6)

that's it thanks for checkin this out, make love not peace, 
J master W.
Comments