The Killers - Mr Brightside Chords & Tabs

 

The Killers Chords & Tabs

Version: 1 Type: Tab 6 ratings
1 star 2 stars 3 stars 4 stars 5 stars
comments

Mr Brightside Tab

I think this is right

e|-----------11----------------11----------------11----------------11-----|
B|-----14--14--14--------14--14--14--------14--14--14--------14--14--14---|
G|---13--13------13----13--13------13----13--13------13----13--13------13-|
D|-11----------------10---------------------------------------------------|
A|--------------------------------------9-----------------9---------------|
E|------------------------------------------------------------------------|

  Drums Enter
e|-----------11----------------11----------------11----------------11-----|
B|-----14--14--14--------14--14--14--------14--14--14--------14--14--14---|
G|---13--13------13----13--13------13----13--13------13----13--13------13-|
D|-11----------------10---------------------------------------------------|
A|--------------------------------------9-----------------9---------------|
E|------------------------------------------------------------------------|

the corse sounded a little off so try this 
[ Tab from: http://www.guitartabs.cc/tabs/t/the_killers/mr_brightside_tab.html ]
    Chorus
e|------------------------------------------------------------------------|
B|-6---6---6---6-----7---7---7---7-----9---9---9---9----------------------|
G|---6---6---6---6-----6---6---6---6-----6---6---6---6----8---6---5---6---|
D|------------------------------------------------------------------------|
A|------------------------------------------------------------------------|
E|------------------------------------------------------------------------|

e|------------------------------------------------------------------------|
B|-6---6---6---6-----7---7---7---7-----9---9---9---9----------------------|
G|---6---6---6---6-----6---6---6---6-----6---6---6---6----8---6---5---6---|
D|------------------------------------------------------------------------|
A|------------------------------------------------------------------------|
E|------------------------------------------------------------------------|

   Its just the price I pay
e|-4-----4-----4-----6-----6-----6-----9-----9-----9----------------------|
B|---6------6-----6----6------6-----6----6------6-----6-------------------|
G|------6-----6-----------6-----6-----------6-----6-------8---6---5---6---|
D|------------------------------------------------------------------------|
A|------------------------------------------------------------------------|
E|------------------------------------------------------------------------|

e|-4-----4-----4-----6-----6-----6-----9-----9-----9----------------------|
B|---6-----6-----6-----6-----6-----6-----6-----6-----6--------------------|
G|-----6-----6-----------6-----6-----------6-----6--------8---6---5---6---|
D|------------------------------------------------------------------------|
A|------------------------------------------------------------------------|
E|------------------------------------------------------------------------|
Comments