The Killers - Mr Brightside Chords & Tabs

 

Mr Brightside Chords & Tabs

The Killers Chords & Tabs

Version: 1 Type: Bass Tab 10 ratings
1 star 2 stars 3 stars 4 stars 5 stars
comments

Mr Brightside Bass Tab

   
Intro
G-----------------------------------------------------------------
D-----------------------------------------------------------------
A-4~--------------3~----------------------------------------------
E---------------------------------2~--------------2~--------------

Verse Part 1
G-----------------------------------------------------------------
D-----------------------------------------------------------------
A-4-4-4-4-4-4-4-4-3-3-3-3-3-3-3-3---------------------------------
E---------------------------------2-2-2-2-2-2-2-2-2-2-2-2-2-2-2-2-

Verse Part 2
G-----------------------------------------------------------------
D-----------------------------------------------------------------
A-4-4-4-4-4-4-4-4-3-3-3-3-3-3-3-3/9-9-9-9-9-9-9-9-9-9-9-9-9-9-9-9-
E-----------------------------------------------------------------

Pre-Chorus (Difficult to tab timing but you'll pick it up)
G-------------------------------------------
D-------------------------------------------
A------------/11--9--8------------/8---6--5-
E-6--6--6--6-----------4--4--4--4-----------
[ Tab from: http://www.guitartabs.cc/tabs/t/the_killers/mr_brightside_btab.html ]
G-------------------------------------------
D-------------------------------------------
A------------/6---4--3------------/3---4--6-
E-2--2--2--2-----------2--2--2--2-----------

G-------------------------------------------
D-------------------------------------------
A------------/11--9--8------------/8---6--5-
E-6--6--6--6-----------4--4--4--4-----------

G---------------------------------------------------
D---------------------------------------------------
A---------------------------------------------------
E-2-2-2-2-2-2-2-2-2-2-2-2-2-2-2-2/14-14-14-14-14-14-

Chorus/Bridge
G-----------------------------------------------------------------
D-----------------------------------------------------------------
A-4-4-4-4-4-4-4-4-9-9-9-9-9-9-9-9---------------------------------
E---------------------------------6-6-6-6-6-6-6-6-4-4-4-4-4-4-4-4-

Interlude
G-----------------------------------------------------------------
D--------------------------------8~---------------6~--------------
A-4~--------------9~----------------------------------------------
E-----------------------------------------------------------------

Outro
G-----------------
D-4---------------
A---4-------------
E-----4~----------
Comments