The Juliana Theory - White Days Chords & Tabs

 

White Days Chords & Tabs

The Juliana Theory Chords & Tabs

Version: 1 Type: Tab 0 ratings
1 star 2 stars 3 stars 4 stars 5 stars
comments

White Days Tab

The Juliana Theory
White days

this is how i play it, sounds pretty decent

	Verse
e-------------------------------------------2-------0------------------
b-----------3---------------3-----------------3-------3----------------
g-------4-----4---------4-----4---------4-------4-0-----4-0-4/6\4-2----	4X
d-----0---0-----0-----0---0-----0-----0---0----------------------------
a---2-------------2-0-------------2------------------------------------
e-----------------------------------3----------------------------------

	Transition Chords
e------------------------------
b--4--3--3--3------------------
g--3--0--0--0------------------
d--0--5--2--2------------------
a--2--5--2--3------------------
e--------0---------------------
[ Tab from: http://www.guitartabs.cc/tabs/t/the_juliana_theory/white_days_tab.html ]
	Verse
e-------------------------------------------2-------0------------------
b-----------3---------------3-----------------3-------3----------------
g-------4-----4---------4-----4---------4-------4-0-----4-0-4/6\4-2----	4X
d-----0---0-----0-----0---0-----0-----0---0----------------------------
a---2-------------2-0-------------2------------------------------------
e-----------------------------------3----------------------------------


	Chorus
e---------------------				---
b--4--3--3------------				-3-
g--3--0--0------------		4X	end 	-4-
d--0--5--0------------				-0-
a--2--5--2------------				-2-
e--------0------------				---


Verse
e-------------------------------------------2-------0------------------
b-----------3---------------3-----------------3-------3----------------
g-------4-----4---------4-----4---------4-------4-0-----4-0-4/6\4-2----	4X
d-----0---0-----0-----0---0-----0-----0---0----------------------------
a---2-------------2-0-------------2------------------------------------
e-----------------------------------3----------------------------------


	Chorus
e---------------------				
b--4--3--3------------				
g--3--0--0------------	
d--0--5--0------------				
a--2--5--2------------				
e--------0------------			


you can end here or use the chorus chords to do something along 
the lines of the "days like this..." part

tabbed by speedomansam (wells)
Comments