The Juliana Theory - This Is The End Of Your Life Chords & Tabs

 

This Is The End Of Your Life Chords & Tabs

The Juliana Theory Chords & Tabs

Version: 1 Type: Tab 0 ratings
1 star 2 stars 3 stars 4 stars 5 stars
comments

This Is The End Of Your Life Tab

   
#----------------------------------PLEASE NOTE---------------------------------#
#This file is the author's own work and represents their interpretation of the #
#song. You may only use this file for private study, scholarship, or research. #
#------------------------------------------------------------------------------#

Artist: The Juliana Theory
Album: Music From Another Room (EP)
Tune down one whole step DGCFAD

This is not a perfect tab but hopefully it is close enough for you to figure out.
The Juliana Theory is one of the best new bands out there right now. This song
just blows me away every time. It's great live too.
Tabbed January 31, 2003 by Dan Haueter.
E-mail me with any corrections: danhaueter@yahoo.com


Gtr 1 = Lead
Gtr 2 = Rhythm or bass part


Verse 1

Gtr 1
1:--------------------------|
2:--------------------------|
3:-----7------9-------------|
4:-9------9-----------------|
5:--------------------------|
6:--------------------------|

Gtr 1
1:-14---------------------15-----------19----------|
2:-------------------------------------------------|
3:-------------------------------------------------|
4:-------------------------------------------------|
5:-------------------------------------------------|
6:-------------------------------------------------|
   tremolo picking

Gtr2
1:-------------------------------------------------|
2:-------------------------------------------------|
3:-------------------------------------------------|
4:-------------------------------------------------|
5:-------------------------------------------------|
6:-7----7----7-5---7---0---3----3----3-5---8---5---|
   PM...........................................>


Chorus:

Gtr 1
1:-12-----12---12----12-----12---12----12-----12---12----16-----------|
2:-15b17---------r15-15b17---------r15-15b17---------r15-19b21r19--15-|
3:--------------------------------------------------------------------|
4:--------------------------------------------------------------------|
5:--------------------------------------------------------------------|
6:--------------------------------------------------------------------|

Gtr 2
1:-----------------------------------------|
2:-----------------------------------------|
3:-----------------------------------------|
4:-9----9--9----9--2-2--5----5-5--10--7--7-|
5:-9----9--9----9--2-2--5----5-5--10--7--7-|
6:-7----7--7----7--0-0--3----3-3--8---5--5-|


Interlude:

Gtr 2
1:---------------------------|
2:---------------------------|
3:---------------------------|
4:---------------------------|
5:---------------------------|
6:5h7-7--5h7-7--5h7-7--8-8-8-|

Gtr2
1:--------------------------------------------------------|
2:--------------------------------------------------------|
3:--------------------------------------------------------|
4:-10-----------------------2-----------------------7-7-7-|
5:-10-----------------------2-----------------------7-7-7-|
6:-8------------------------0-----------------------5-5-5-|

[ Tab from: http://www.guitartabs.cc/tabs/t/the_juliana_theory/this_is_the_end_of_your_life_tab.html ]
Gtr 1
1:--------------------------------------------------------------------------------|
2:-----------------------------7-----------7--------------------------------------|
3:-11-----------11b13b14----------9-----9-----------------------------------------|
4:--------------------------9--------9--------------------------------------------|
5:--------------------------------------------------------------------------------|
6:-------------------------------------------0------------------------------------|

Gtr 1
1:----------------------|
2:-15-17-19-20-19-------|
3:----------------------|
4:----------------------|
5:----------------------|
6:----------------------|

Gtr 3
1:--------------------------|
2:--------------------------|
3:-11-------b13r11----------|
4:--------------------------|
5:--------------------------|
6:--------------------------|

Gtr 2
1:-------------------------|
2:-------------------------|
3:-------------------------|
4:-7-----10----9-----2-----|
5:-7-----10----9-----2-----|
6:-5-----8-----7-----0-----|


1:-----------------------------------------|
2:-----------------------------------------|
3:--7vvvvvvvv7vvvvvvvvv5vvvvvvvv4vvvvvvvv--|
4:-----------------------------------------|
5:-----------------------------------------|
6:-----------------------------------------|
 there's probably another sting being played here too, by another gtr
Gtr 1
1:-10--10p9---10--10p9---14--14--12--12p9----|
2:-12--12p10--12--12p10--15--15--13--13p10---| 
3:-------------------------------------------|
4:-------------------------------------------|
5:-------------------------------------------| same here, try this or just play
6:-------------------------------------------| the second sting


Ending

Gtr 2
1:----------------------------------------------------------------------|
2:----------------------------------------------------------------------|
3:----------------------------------------------------------------------|
4:----------------------------------------------------------------------|
5:----------------------------------------------------------------------|
6:-5h7-7--5h7-7--5h7-7--8-8-8--5h7-7--5h7-7--5h7-7--8-8-8-8-8-8-8-8-8-\-|

Gtr 1
1:------------------------------------------------------------------------------|
2:-12vvvv12vvvv19vvvv20vvvv20vvvv20vvvv20vvvv20vvvv20-20-20-20-20-20-20-20-20-\-|
3:------------------------------------------------------------------------------|
4:------------------------------------------------------------------------------|
5:------------------------------------------------------------------------------|
6:------------------------------------------------------------------------------|


That's about it


Notation:

h = hammer-on
p = pull-off
b = bend to what the next number fret is
r = return bend
v = vibrato
pm = palm mute

I'm sorry about the order, I'm really tired and I just don't care to make sure that
this is in perfect order. If you listen to the song you'll figure it out pretty
easily. Feel free to send me comments or criticisms.
Comments