The Hunger - Vanishing Cream Chords & Tabs

 

Vanishing Cream Chords & Tabs

The Hunger Chords & Tabs

Version: 1 Type: Tab 0 ratings
1 star 2 stars 3 stars 4 stars 5 stars
comments

Vanishing Cream Tab

Song:Vanishing Cream
Band:The Hunger
Album:Devil Thumbs a Ride
Tabbed by Ryan Hill

Intro
e--------------------------------------------------------------|
b----------5------------------------------5--------------------|
g-4-3-----------4--6--3----6------4-3----------4--6--3----6----|
d-----4-----------------------7-------4----------------------7-|
a--------------------------------------------------------------|
E--------------------------------------------------------------|

Verse
(bass transcribed for guitar)
e-------------------------------------------------------------|
b-------------------------------------------------------------|
g-------------------------------------------------------------|
d-------------------------------------------------------------|
a-----4----2--4-----7----5--7---------------------------------|
E--2-----2-------5-----5--------------------------------------|
  Who            fills      the sky...

Pre-Chorus X3
e---------------------------------------------------------------|
b---------------------------------------------------------------|
g---------------------------------------------------------------|
d-4--x-x-7/9--4--x-x-7/9--4--x-x-7/9--6---7---------------------|
a-4--x-x-7/9--4--x-x-7/9--4--x-x-7/9--6---7---------------------|
E-2--x-x-5/7--2--x-x-5/7--2--x-x-5/7--4---5---------------------|
  I                       feel   so  good to...
..day
[ Tab from: http://www.guitartabs.cc/tabs/t/the_hunger/vanishing_cream_tab.html ]
Pre-Chorus fill X1
e-------------------------------------------------------------|
b-------------------------------------------------------------|
g-------------------------------------------------------------|
d-4--x-x-7/9--4--x-x-7/9--4--x-x-7/9--6--2--------------------|
a-4--x-x-7/9--4--x-x-7/9--4--x-x-7/9--6--2--------------------|
E-2--x-x-5/7--2--x-x-5/7--2--x-x-5/7--4--0--------------------|
                        Today    will be the...

Chorus X2
e----------------------------------------------------------------------|
b----------------------------------------------------------------------|
g-------------------------9-------------------8-------------------9----|
d--4----------------------9-------------------9-------------------9----|
a--4----------------------7-------------------6-------------------7----|
E--2-------------------------------------------------------------------|
...Day, Is it real, Is it You, Are you What I see, Is it him am I good or just...

Thats pretty much all you need to know. The song is a repeat after the first Chorus 
for a mini solo played over the verse riff.  The actual solo is played after the second 
over the Chorus chords.  Next, I'll write out the structure.

Intro
Verse 1
Prechorus w/ fill
Chorus 1
Pre-verse solo
Verse 2
Prechorus w/ fill
Chorus 2
Solo
Chorus 3
Outro

With the exception of the solo this song isn't difficult.  It should be easy enough to 
to the song and tell where the parts go.  Enjoy! This is one of the most under-rated rock 
ever.  I'm surprised I'm the first to transcribe it.

Any questions or comments or improvements are appreciated.  Email me at Rhill17@kc.rr.com.

This tab may not be used on any other website without my permission unless I am 
Copywrite 2005 Ryan Hill.
Comments