The Honorary Title - Petals Chords & Tabs

 

Petals Chords & Tabs

The Honorary Title Chords & Tabs

Version: 1 Type: Tab

Petals Tab

   
----------------------------------------------------------------------------
			     Petals - The Honorary Title
----------------------------------------------------------------------------
Tabbed by: adslam3
Email:greenday329@hotmail.com

Tuning: EADGBe (standard)

NOTE: The strumming is not exact! This is just the gist of it.

Intro
e|-3-3-3-3---------------3-3-3-3---------------------------------------------|
B|-3-3-3-3---------------3-3-3-3---------------------------------------------|
G|-0-0-0-0---3 times------0-0-0-0--------------------------------------------|
D|-0-0-0-0---/------------0-0-2-2--------------------------------------------|
A|-2-2-2-2--/-------------2-2-3-2--------------------------------------------|
E|-3-3-3-3-/--------------3-3------------------------------------------------|
[ Tab from: http://www.guitartabs.cc/tabs/t/the_honorary_title/petals_tab.html ]
Verse
  "Petals...All the...Forget...Forget..."
e|-3--------3---------3--------3--------------------------------------------|
B|-3--------3---------3--------3--------------------------------------------|
G|-0--------0---------0--------0-----------Then into------------------------|
D|-0--------2---------2--------0--------------------------------------------|
A|-2--------2---------3--------2--------------------------------------------|
E|-3---------------------------3--------------------------------------------|

Chorus
e|-3--3--3--3---------------------------------------------------------------|
B|-3--3--3--3---------------------------------------------------------------|
G|-0--0--0--0---------------------------------------------------------------|
D|-0--2--2--0---------------------------------------------------------------|
A|-2--3--2--2---------------------------------------------------------------|
E|-3--------3---------------------------------------------------------------|

This sounds about right and i might have missed a few of the little extra things, but 
is fairly close enough to enjoy. The strumming is not hard to figure out.  If you can find 
tab this better then let me know. thanks.

| /  slide up
|   slide down
| h  hammer-on
| p  pull-off
| ~  vibrato
| +  harmonic
| x  Mute note
============================================================================