The Honorary Title - Everything I Once Had Chords & Tabs

 

Everything I Once Had Chords & Tabs

The Honorary Title Chords & Tabs

Version: 2 Type: Tab 0 ratings
1 star 2 stars 3 stars 4 stars 5 stars
comments

Everything I Once Had Tab

Didn't really like any others on the net, so here it is.

E|--------2-----------2-----------2------------------|
B|----3-----3-----3-----3-----3-----3-----3-----3----|
G|------4-----4-----4-----4-----0-----0-----0-----0--|
D|--------4-----------4-----------0------------------|
A|--2-----------0------------------------------------|
D|--------------------------5-----------2-----5------|

E|------------------------------2-----------------------------3-2-0h2-0--|
B|--------------------------0-3---5p3-------------------------0-0-0---0--|
G|-----------------------------------------------------------------------|
D|-----------------------------------------------------------------------|
A|--2-2-2-2---------------------------2-2-2-2----------------------------|
D|----------0-0-0-0-5-5-5-5-------------------0-0-0-0-5-5-5-5------------|

E|------------------------------------------------------------|
B|------------------------------------------------------------|
G|------------------------------------------------------------|
D|------------------------------------------------------------|
A|--2-2-2-2--------------------------2-2-2-2------------------|
D|----------0-0-0-0-5-5-5-5-2-2-2-2----------0-0-0-0-5-5-5-5--|

E|--0----0----0----0--3-2-0h2-0--|
B|--0----0----0----0--0-0-0---0--|
G|--0----0----0----0-------------|
D|--2----5----2----5-------------|
A|--2----5----2----5-------------|
D|--2----5----2----5-------------|

E|-----------------------------------|
B|-----------------------------------|
G|--4-4-4-4--------------------------|
D|--4-4-4-4-0-0-0-0-5-5-5-5-2-2-2-2--|
A|--2-2-2-2-0-0-0-0-5-5-5-5-2-2-2-2--|
D|----------0-0-0-0-5-5-5-5-2-2-2-2--|

E|---------------------------|
B|---------------------------|
G|--4-4-4-4------------------|
D|--4-4-4-4-0-0-0-0-5-5-5-5--|
A|--2-2-2-2-0-0-0-0-5-5-5-5--|
D|----------0-0-0-0-5-5-5-5--|
[ Tab from: http://www.guitartabs.cc/tabs/t/the_honorary_title/everything_i_once_had_tab_ver_2.html ]
E|--0--------0--------0--------0----3-2-0h2-0--|
B|--0--------0--------0--------0----0-0-0---0--|
G|--0--------0--------0--------0---------------|
D|--2--------5--------2--------5---------------|
A|--2--------5--------2--------5---------------|
D|--2--------5--------2--------5---------------|

E|--------------------------------------------------------------------|
B|--------------------------------------------------------------------|
G|--------------------------------------------------------------------|
D|--------------------------------------------------------------------|
A|--2-2-2-2--------------------------2-2-2-2--------------------------|
D|----------0-0-0-0-5-5-5-5-2-2-2-2----------0-0-0-0-5-5-5-5-2-2-2-2--|

E|---------------------------|
B|---------------------------|
G|---------------------------|
D|---------------------------|
A|--2-2-2-2------------------|
D|----------0-0-0-0-5-5-5-5--|

E|--0----0----0----0----|
B|--0----0----0----0----|
G|--0----0----0----0----|
D|--2----5----2----5----|
A|--2----5----2----5----|
D|--2----5----2----5----|

E|--0----0----0----0--3-2-0h2-0--|
B|--0----0----0----0--0-0-0---0--|
G|--0----0----0----0-------------|
D|--2----5----2----5-------------|
A|--2----5----2----5-------------|
D|--2----5----2----5-------------|

E|-----------------------------------|
B|-----------------------------------|
G|--4-4-4-4--------------------------|
D|--4-4-4-4-0-0-0-0-5-5-5-5-2-2-2-2--|
A|--2-2-2-2-0-0-0-0-5-5-5-5-2-2-2-2--|
D|----------0-0-0-0-5-5-5-5-2-2-2-2--|x4

E|----2-2-2---2-2-2---2-2-2-2-2-2-2--|
B|----3-3-3---3-3-3---3-3-3-3-3-3-3--|
G|--4-4-4-4-4-4-4-4-0-0-0-0-0-0-0-0--|
D|--4-4-4-4-0-0-0-0-0-0-0-0-0-0-0-0--|
A|--2-------0-------x----------------|
D|----------0-------5----------------|x2

E|--2-2-2-2-2-2-2-2-2-2-2-2-2-2-2-2--|
B|--3-3-3-3-3-3-3-3-3-3-3-3-3-3-3-3--|
G|--4-4-4-4-4-4-4-4-0-0-0-0-0-0-0-0--|
D|--4-4-4-4-0-0-0-0-0-0-0-0-0-0-0-0--|
A|--2-2-2-2-0-0-0-0-x-x-x-x-x-x-x-x--|
D|----------0-0-0-0-5-5-5-5-5-5-5-5--|x8

E|--------2-----------------------2-----------------2--|
B|----3-----3-----3-----3-----3-----3-----3-----3---3--|
G|------4-----4-----4-----0-----4-----4-----4-----0----|
D|--------4-----------------------4--------------------|
A|--2-----------0-----------2-----------0-----------2--|
D|--------------------5-----------------------5--------|
Comments