The Hollies - Long Cool Woman In A Black Dress Chords & Tabs

 

Long Cool Woman In A Black Dress Chords & Tabs

The Hollies Chords & Tabs

Version: 1 Type: Tab 0 ratings
1 star 2 stars 3 stars 4 stars 5 stars
comments

Long Cool Woman In A Black Dress Tab

#----------------------------------PLEASE NOTE---------------------------------#
#This file is the author's own work and represents their interpretation of the #
#song. You may only use this file for private study, scholarship, or research. #
#------------------------------------------------------------------------------#

long cool woman in a black dress
by: the hollies
tabbed by: ian gunter

INTRO:

e-------------------------------------------------------------------|
b-------------------------------------------------------------------|
g-----------0------0-----0-----0---0--------------------------------|
d---------0------0-----0-----0---0--------0-----0-----0-----0-------|
a---0h2p0------5-----4-----2------------2-----0-----2-----4---------|
e-0-----------------------------------3-----1-----3-----5------3--2-|

e-------------------------------------------------------------------|
b-------------------------------------------------------------------|
g-----------0------0-----0-----0---0--------------------------------|
d---------0------0-----0-----0---0--------0-----0-----0-----0-------|
a---0h2p0------5-----4-----2------------2-----0-----2-----4---------|
e-0-----------------------------------3-----1-----3-----5------3--2-|

e---------------------------------------------------|
b---------------------------------------------------|
g---------------------------------------------------|
d---------------------------------------------------|
a-2--4--5--4--2-2-4--5--4--2-2-4--5--4--2-2-4--5--4-|
e-0--0--0--0--0-0-0--0--0--0-0-0--0--0--0-0-0--0--0-|

e---------------------------------------------------|
b---------------------------------------------------|
g---------------------------------------------------|
d---------------------------------------------------|
a-2--4--5--4--2-2-4--5--4--2-2-4--5--4--2-2-4--5--4-|
e-0--0--0--0--0-0-0--0--0--0-0-0--0--0--0-0-0--0--0-|


VERSE 1:

 
e--------------------------3--3--3--0--0--0--------------|
b--------------------------3--3--3--2--2--2--------------|
g--------------------------0--0--0--2--2--2--------------|
d--------------------------0--0--0--2--2--2--------------|
a-2--4--5--4--2-2-4--5--4--2--2--2----------2-2--4--5--4-|
e-0--0--0--0--0-0-0--0--0--3--3--3----------0-0--0--0--0-|

 

e---------------------------3--3--3--0--0--0---------------------------|
b---------------------------3--3--3--2--2--2---------------------------|
g---------------------------0--0--0--2--2--2---------------------------|
d---------------------------0--0--0--2--2--2---------------------------|
a-2-2-4--5--4--2-2-4--5--4--2--2--2-----------2-2-4--5--4--2-2-4--5--4-|
e-0-0-0--0--0--0-0-0--0--0--3--3--3-----------0-0-0--0--0--0-0-0--0--0-|



e---------------------------3--3--3--0--0--0--------------|
b---------------------------3--3--3--2--2--2--------------|
g---------------------------0--0--0--2--2--2--------------|
d---------------------------0--0--0--2--2--2--------------|
a-2-2-4--5--4--2-2-4--5--4--2--2--2-----------2-2-4--5--4-|
e-0-0-0--0--0--0-0-0--0--0--3--3--3-----------0-0-0--0--0-|

 

e---------------------------3--3--3--0--0--0---------------------------|
b---------------------------3--3--3--2--2--2---------------------------|
g---------------------------0--0--0--2--2--2---------------------------|
d---------------------------0--0--0--2--2--2---------------------------|
a-2-2-4--5--4--2-2-4--5--4--2--2--2-----------2-2-4--5--4--2-2-4--5--4-|
e-0-0-0--0--0--0-0-0--0--0--3--3--3-----------0-0-0--0--0--0-0-0--0--0-|

Chorus


 Interlude:
[ Tab from: http://www.guitartabs.cc/tabs/t/the_hollies/long_cool_woman_in_a_black_dress_tab.html ]
e-----------------------------------------------------------|
b-----------------------------------------------------------|
g----------------------------0----------------------------0-|
d-0h2--2--2--2-----0-------0----0h2--2--2--2------0-----0---|
a---------------0h2----0h2--------------------0h2---0h2-----|
e-----------------------------------------------------------|

e-----------------------------------------------------------|
b-----------------------------------------------------------|
g----------------------------0----------------------------0-|
d-0h2--2--2--2-----0-------0----0h2--2--2--2------0-----0---|
a---------------0h2----0h2--------------------0h2---0h2-----|
e-----------------------------------------------------------|
                                                  Wooow!
e---------------------------------------------------|
b---------------------------------------------------|
g---------------------------------------------------|
d---------------------------------------------------|
a-2--4--5--4--2-2-4--5--4--2-2-4--5--4--2-2-4--5--4-|
e-0--0--0--0--0-0-0--0--0--0-0-0--0--0--0-0-0--0--0-|

e---------------------------------------------------|
b---------------------------------------------------|
g---------------------------------------------------|
d---------------------------------------------------|
a-2--4--5--4--2-2-4--5--4--2-2-4--5--4--2-2-4--5--4-|
e-0--0--0--0--0-0-0--0--0--0-0-0--0--0--0-0-0--0--0-|


Verse2:


e---------------------------3--3--3--0--0--0--------------|
b---------------------------3--3--3--2--2--2--------------|
g---------------------------0--0--0--2--2--2--------------|
d---------------------------0--0--0--2--2--2--------------|
a-2-2-4--5--4--2-2-4--5--4--2--2--2-----------2-2-4--5--4-|
e-0-0-0--0--0--0-0-0--0--0--3--3--3-----------0-0-0--0--0-|

 

e---------------------------3--3--3--0--0--0--------------|
b---------------------------3--3--3--2--2--2--------------|
g---------------------------0--0--0--2--2--2--------------|
d---------------------------0--0--0--2--2--2--------------|
a-2-2-4--5--4--2-2-4--5--4--2--2--2-----------2-2-4--5--4-|
e-0-0-0--0--0--0-0-0--0--0--3--3--3-----------0-0-0--0--0-|

 

e---------------------------3--3--3--0--0--0--------------|
b---------------------------3--3--3--2--2--2--------------|
g---------------------------0--0--0--2--2--2--------------|
d---------------------------0--0--0--2--2--2--------------|
a-2-2-4--5--4--2-2-4--5--4--2--2--2-----------2-2-4--5--4-|
e-0-0-0--0--0--0-0-0--0--0--3--3--3-----------0-0-0--0--0-|

 

e---------------------------3--3--3--0--0--0---------------------------|
b---------------------------3--3--3--2--2--2---------------------------|
g---------------------------0--0--0--2--2--2---------------------------|
d---------------------------0--0--0--2--2--2---------------------------|
a-2-2-4--5--4--2-2-4--5--4--2--2--2-----------2-2-4--5--4--2-2-4--5--4-|
e-0-0-0--0--0--0-0-0--0--0--3--3--3-----------0-0-0--0--0--0-0-0--0--0-|



e---------------------------3--3--3--0--0--0---------------------------|
b---------------------------3--3--3--2--2--2---------------------------|
g---------------------------0--0--0--2--2--2---------------------------|
d---------------------------0--0--0--2--2--2---------------------------|
a-2-2-4--5--4--2-2-4--5--4--2--2--2-----------2-2-4--5--4--2-2-4--5--4-|
e-0-0-0--0--0--0-0-0--0--0--3--3--3-----------0-0-0--0--0--0-0-0--0--0-|

...
e---------------------------------------|
b---------------------------------------|
g---------------------------------------|  repeat to fade
d---------------------------------------|
a-2--4--5--4--2-2-4--5--4--2-2-4--5--4--|
e-0--0--0--0--0-0-0--0--0--0-0-0--0--0--|
Comments