The Hold Steady - Your Little Hoodrat Friend Chords & Tabs

 

Your Little Hoodrat Friend Chords & Tabs

The Hold Steady Chords & Tabs

Version: 1 Type: Tab 0 ratings
1 star 2 stars 3 stars 4 stars 5 stars
comments

Your Little Hoodrat Friend Tab

   
Your Little Hood Rat Friend
The Hold Steady
LittleMan13z
____________________________________________________________________________

Song
____________________________________________________________________________
Riff A
 P.M..............................................
e--------------------------------------------------|
B--------------------------------------------------|
G----------------------------------4-4-4-4-4-4-4-4-|
D------------------5-5-5-5-5-5-5-5-2-2-2-2-2-2-2-2-|
A--5-5-5-5-5-5-5-5-3-3-3-3-3-3-3-3-----------------|
E--3-3-3-3-3-3-3-3---------------------------------|

 P.M.............
e-----------------|
B-----------------|
G-5-5-5-5---------|
D-3-3-3-3-5-5-5-5-|
A---------3-3-3-3-|
E-----------------|

Riff B

e--------------------------------------------------|
B----------------------------------5-5-5-5-5-5-5-5-|
G------------------5-5-5-5-5-5-5-5-4-4-4-4-4-4-4-4-|
D--5-5-5-5-5-5-5-5-5-5-5-5-5-5-5-5-2-2-2-2-2-2-2-2-|
A--5-5-5-5-5-5-5-5-3-3-3-3-3-3-3-3-----------------|
E--3-3-3-3-3-3-3-3---------------------------------|


e-----------------|
B-6-6-6-6---------|
G-5-5-5-5-5-5-5-5-|
D-3-3-3-3-5-5-5-5-|
A---------3-3-3-3-|
E-----------------|

Riff C

e--------------------------------------------------|
B--------------------------------------------------|
G------------------7-7-7-7-7-7-7-7-5-5-5-5-5-5-5-5-|
D--5-5-5-5-5-5-5-5-7-7-7-7-7-7-7-7-5-5-5-5-5-5-5-5-|
A--5-5-5-5-5-5-5-5-5-5-5-5-5-5-5-5-3-3-3-3-3-3-3-3-|
E--3-3-3-3-3-3-3-3---------------------------------|

    P.M..........
e-----------------|
B-----------------|
G-5---------------|
D-5-2-2-2-3-3-4-4-|
A-3-2-2-2-3-3-4-4-|
E---0-0-0-1-1-2-2-|

Chorus

e----------------------------------|
B----------------------------------|
G------------------7-7-7-7-7-7-7-7-|
D--5-5-5-5-5-5-5-5-7-7-7-7-7-7-7-7-|
A--5-5-5-5-5-5-5-5-5-5-5-5-5-5-5-5-|
E--3-3-3-3-3-3-3-3-----------------|


e---------------------------------|
B---------------------------------|
G-5-5-5-5-5-5-5-5-5-5-5-5-5-5-5-5-|
D-5-5-5-5-5-5-5-5-5-5-5-5-5-5-5-5-|
A-3-3-3-3-3-3-3-3-3-3-3-3-3-3-3-3-|
E---------------------------------|
[ Tab from: http://www.guitartabs.cc/tabs/t/the_hold_steady/your_little_hoodrat_friend_tab.html ]
Riff D
   P.M............................
e----------------------------------|
B----------------------------------|
G----------------------------------|
D------------------5-5-5-5-5-5-5-5-|
A--5-5-5-5-5-5-5-5-3-3-3-3-3-3-3-3-|
E--3-3-3-3-3-3-3-3-----------------|

  P.M......................
e--------------------------------|
B--------------------------------|
G-4-4-4-4-4-4-4-4-5-5-5-5--------|
D-2-2-2-2-2-2-2-2-3-3-3-3-5------|
A-------------------------3------|
E--------------------------------|

Riff E

e---------------------------------------------------|
B--8--------------(8)--------------(8)--------------|
G---------------------------------------------------|
D---------------------------------------------------|
A---------------------------------------------------|
E---------------------------------------------------|

e------------------|     Some effect is used in
B-(8)--------------|     in this part to make this
G------------------|     note really long
D------------------|
A------------------|
E------------------|

Riff F

e-----------------------------------------------------------|
B--(8)----------------(8)----------------(8)----------------|
G-----------------------------------------------------------|
D-----------------------------------------------------------|
A-----------------------------------------------------------|
E-----------------------------------------------------------|


e-------------------------------------|   x/ means pick slide
B-(8)---------------------------------|
G-------------------------------------|
D--------------------x///////////////-|
A--------------------x///////////////-|
E-------------------------------------|

Outro

e------------------|   Let this note fade out
B------------------|
G--4-5-------------|
D--4-5-5-----------|   (I Know, It's a Small Outro)
A--2-3-5-----------|
E------3-----------|
____________________________________________________________________________

Order
____________________________________________________________________________
Riff A x2
Riff B x2
Riff A x4
Riff B x2
Riff C x2
Chorus x2
Riff A x1
Riff D x1
Riff B x2
Riff C x2
Chorus x2
Riff E x3
Riff F x1
Riff C x2
Chorus x2
Outro  x1
Comments