The Herd - Starship Troopers Chords & Tabs

 

Starship Troopers Chords & Tabs

The Herd Chords & Tabs

Version: 1 Type: Bass Tab

Starship Troopers Bass Tab

The Herd- Starship Troopers

Tune E string down half a step (D#)

Intro
G ---------------------------------------------------------------------|
D -------8-------------------------------------------------------------|
A ---------6-6---------------------------------------------------------|
E --8------------------------------------------------------------------|

Verse
G ------8------8------10---------8-------------------------------------|
D ---------------------------------------------------------------------|
A ---------------------------6*----------------------------------------|
E --8*-------8*--8-10*-----0-------------------------------------------|


G ------8------8------10---------8-------------------------------------|
D ---------------------------------------------------------------------|
A ---------------------------6*----------------------------------------|
E --8*-------8*--8-10*-----0-------------------------------------------|


G ------8------8------10---------8-------------------------------------|
D -----------------------------------6-8-9-8-6-8-----------------------|
A ---------------------------6*----------------------------------------|
E --8*-------8*--8-10*-----0-------------------------------------------|


G ------8-------------10---------8-------------------------------------|
D ---------------------------------------------------------------------|
A ---------------------------6*----------------------------------------|
E --8*-----------8-10*-----0-------------------------------------------|

Interlude
G ---8----------8------------------------------------------------------|
D ---------------------------------------------------------------------|
A -----------6*--------------------------------------------------------|
E -8-----10------------------------------------------------------------|


G ---------------------------------------------------------------------|
D ---------------------------------------------------------------------|
A -----------6---------------------------------------------------------|
E -8-----10------------------------------------------------------------|

Verse 2
G ------8-----------------8------10---------8*-----8*------------------|
D --------------------------------------------8------8------6-8-9------|
A --------------------------------------6-6*---6-6*---6-6*-------------|
E --8-8*----7-8-8---7-8-8*---8-10*-10-0--------------------------------|

[ Tab from: http://www.guitartabs.cc/tabs/t/the_herd/starship_troopers_btab.html ]
G -----8-----------------8------10---------8*-----8*---------------6-6\-|
D -------------------------------------------8------8------6-8-9-8------|
A -------------------------------------6-6*---6-6*---6-6*---------------|
E -8-8*----7-8-8---7-8-8*---8-10*-10-0----------------------------------|
G ------8-----------------8------10---------8*-----8*-------------------|
D --------------------------------------------8------8------6-8-9-8-6---|
A --------------------------------------6-6*---6-6*---6-6*--------------|
E --8-8*----7-8-8---7-8-8*---8-10*-10-0---------------------------------|


G ------8-----------------8------10---------8*-----8*------------------|
D --------------------------------------------8------8------6-8-9------|
A --------------------------------------6-6*---6-6*---6-6*-------------|
E --8-8*----7-8-8---7-8-8*---8-10*-10-0--------------------------------|


G ------8-----------------8------10---------8*-----8*------------------|
D --------------------------------------------8------8------6-8-9------|
A --------------------------------------6-6*---6-6*---6-6*-------------|
E --8-8*----7-8-8---7-8-8*---8-10*-10-0--------------------------------|

Outro
G ---------------------------------------------------------------------|
D ----------------6-6---6-6---6-6----6-8-9-----------------------------|
A ---------------------------------------------------------------------|
E -8-----10-10---8-----8-----8-----------------------------------------|


G ------8-----------------8------10---------8*-----8*------------------|
D --------------------------------------------8------8-----------------|
A --------------------------------------6-6*---6-6*---6-6*-------------|
E --8-8*----7-8-8---7-8-8*---8-10*-10-0--------------------------------|


G ------8----10-------8------------------------------------------------|
D ------------------------6-8-9-8--------------------------------------|
A ----------------6----------------------------------------------------|
E --8*-----10----------------------------------------------------------|


G ------8----10-------8---------8*-------------------------------------|
D ---------------------------------------------------------------------|
A ----------------6----------------------------------------------------|
E --8*-----10----------------------------------------------------------|


G -----8-----10-10-----------------------------------------------------|
D ---------------------------------------------------------------------|
A -------------------6-------------------------------------------------|
E --8*---8/10*------0--------------------------------------------------|

The End