The Herd - Our Fairy Tale Chords & Tabs

 

Our Fairy Tale Chords & Tabs

The Herd Chords & Tabs

Version: 1 Type: Tab 0 ratings
1 star 2 stars 3 stars 4 stars 5 stars
comments

Our Fairy Tale Tab

   
-----------------------------------------------------------------

     THE HERD - OUR FAIRY TALE (Bown/Frampton) Released as B side 
                of I DON'T WANT OUR LOVING TO DIE single in 1968. 

-----------------------------------------------------------------

     Tabbed by:PJVillanueva






Can you imagine our love at all, but for real, not pretend
It'll work out like a fairy tale, you love me in the end

I'll feel good again, I'll start to live again,
I will smile again, I'll never cry again,
I'll go to work again, even to church again
In our fairy tale.

You will be happy with me in our fairy tale
You will be happy with me in our fairy tale
You will be happy with me in our fairy tale...

All of the times that I want so much will be there and it's true
I will be feeling our gentle touch. You love me, I love you

Don't you understand?

You will be happy with me in our fairy tale
You will be happy with me in our fairy tale
You will be happy with me in our fairy tale...

(Aaaaaah)

I'll feel good again, I'll start to live again,
I will smile again, I'll never cry again,
I'll go to work again, even to church again
In our fairy tale.

You will be happy with me in our fairy tale
You will be happy with me in our fairy tale
You will be happy with me in our fairy tale    (Fade)
You will be happy with me in our fairy tale     
You will be happy with me in our fairy tale




                  x                               x                               
Gsus4 G                         Fsus4 F
e|------- ------- ------- -------|------- ------- ------- -------|
B|-------------------------------|-------------------------------|
G|5---5-----------5--------------|3---3-----------3--------------|
D|5---4-----------4--------------|3---2-----------2--------------|
A|5---5-----------5--------------|3---3-----------3--------------|
E|-------------------------------|-------------------------------|

e|------- ------- ------- -------|------- ------- ------- -------|
B|8-\-7--------------------------|6-\-5--------------------------|
G|-------------------------------|-------------------------------|
D|5-\-4--------------------------|3-\-2--------------------------|
A|-------------------------------|-------------------------------|
E|-------------------------------|-------------------------------|



                  x                       x               x
Ebsus4 Eb                         A7              Dsus4
e|------- ------- ------- -------|3------ ------- 3------ -------|
B|-------------------------------|2---------------3--------------|
G|1---1-----------1--------------|2---------------2--------------|
D|1---0-----------0--------------|2---------------0--------------|
A|1---1-----------1--------------|0------------------------------|
E|-------------------------------|-------------------------------|

e|------- ------- ------- -------|------- ------- ------- -------|
B|-------------------------------|-------------------------------|
G|8-\-7--------------------------|6---------------7--------------|
D|-------------------------------|--------7----------------------|
A|6-\-5--------------------------|4---------------5--------------|
E|-------------------------------|--------5----------------------|



          x               x               x

e|3------ ------- 3------ -------|3------ -------|
B|3---------------3--------------|3--------------|
G|2---------------2--------------|2--------------|
D|0---------------0--------------|0--------------|
A|-------------------------------|---------------|
E|-------------------------------|---------------|

e|------- -------10------ -----/-15------ -------|
B10------------------------------|---------------|
G|----------------7------------/-12--------------|
D|7------------------------------|---------------|
A|-------------------------------|---------------|
E|-------------------------------|---------------|




  G                       C       Bm
e|3------ 3------ ------- 3------|2------ 2------ ------- 2------|
B|3-------3---------------5------|3-------3---------------3------|
G|4-------4---------------5------|4-------4---------------4------|
D|5-------5---------------5------|4-------4---------------4------|
A|5-------5---------------3------|2-------2---------------2------|
E|3-------3----------------------|-------------------------------|

e|------- ------- ------- -------|------- ------- ------- -------|
B|-------------------------------|-------------------------------|
G|------------------------5------|4-------4---------------4------|
D|5-------5----------------------|-------------------------------|
A|------------------------3------|2-------2---------------2------|
E|3-------3----------------------|-------------------------------|


e|------- ------- ----5-- 7---7--|8---5-- ------- ----5-- 7------|
B|----5---7---8------------------|----------------------------8--|
G|7------------------------------|-------------------------------|
D|-------------------------------|-------------------------------|
A|-------------------------------|-------------------------------|
E|-------------------------------|-------------------------------|




  C                               Dsus4
e|3------ 3------ ------- 3------|5------ 5------ ------- 5------|
B|5-------5---------------5------|8-------8---------------8------|
G|5-------5---------------5------|7-------7---------------7------|
D|5-------5---------------5------|7-------7---------------7------|
A|3-------3---------------3------|5-------5---------------5------|
E|-------------------------------|-------------------------------|

e|------- ------- ------- -------|------- ------- ------- -------|
B|-------------------------------|-------------------------------|
G|5-------5---------------5------|7-------7---------------7------|
D|-------------------------------|-------------------------------|
A|3-------3---------------3------|5-------5---------------5------|
E|-------------------------------|-------------------------------|

e|------- ------- ------- -------|------- ----5-- ------- -------|
B|--------------------5-------8--|-------------------------------|
G|------------------------7------|-------------------------------|
D|-------------------------------|-------------------------------|
A|-------------------------------|-------------------------------|
E|-------------------------------|-------------------------------|




  G                       C       Bm
e|3------ 3------ ------- 3------|2------ 2------ ------- 2------|
B|3-------3---------------5------|3-------3---------------3------|
G|4-------4---------------5------|4-------4---------------4------|
D|5-------5---------------5------|4-------4---------------4------|
A|5-------5---------------3------|2-------2---------------2------|
E|3-------3----------------------|-------------------------------|

e|------- ------- ------- -------|------- ------- ------- -------|
B|-------------------------------|-------------------------------|
G|------------------------5------|4-------4-------4-------4------|
D|5-------5----------------------|-------------------------------|
A|------------------------3------|2-------2-------2-------2------|
E|3-------3----------------------|-------------------------------|

e|------- ------- ----5-- 7---7--|8---5-- ------- ----5-- 7------|
B|----5---7---8------------------|----------------------------8--|
G|7------------------------------|-------------------------------|
D|-------------------------------|-------------------------------|
A|-------------------------------|-------------------------------|
E|-------------------------------|-------------------------------|




  C                               Dsus4
e|3------ 3------ ------- 3------|5------ 5------ ----5-- 5------|
B|5-------5---------------5------|8-------8-----------8---8------|
G|5-------5---------------5------|7-------7-----------7---7------|
D|5-------5---------------5------|7-------7-----------7---7------|
A|3-------3---------------3------|5-------5-----------5---5------|
E|-------------------------------|-------------------------------|

e|------- ------- ------- -------|------- ------- ------- -------|
B|-------------------------------|-------------------------------|
G|5-------5---------------5------|7-------7-----------9---7------|
D|-------------------------------|----------------------------9--|
A|3-------3---------------3------|5-------5-----------7---5------|
E|-------------------------------|----------------------------7--|

e|------- ------- ----7-- 8--10--|------- ------- ------- -------|
B|-------------------------------|-------------------------------|
G|-------------------------------|-------------------------------|
D|-------------------------------|-------------------------------|
A|-------------------------------|-------------------------------|
E|-------------------------------|-------------------------------|




  G                       C       Bm
e|3------ 3------ ------- 3------|2------ 2------ 2------ 2------|
B|3-------3---------------5------|3-------3-------3-------3------|
G|4-------4---------------5------|4-------4-------4-------4------|
D|5-------5---------------5------|4-------4-------4-------4------|
A|5-------5---------------3------|2-------2-------2-------2------|
E|3-------3----------------------|-------------------------------|
  Can you imagine         our love at all,            but for real,
e|------- ------- ------- -------|------- ------- ------- -------|
B|-------------------------------|-------------------------------|
G|------------------------5------|4-------4-------4-------4----/-|
D|5-------5----------------------|-------------------------------|
A|------------------------3------|2-------2-------2-------2----/-|
E|3-------3----------------------|-------------------------------|
  



  C                               Dsus4
e|3------ 3------ 3------ 3------|5------ 5------ ------- 5------|
B|5-------5-------5-------5------|8-------8---------------8------|
G|5-------5-------5-------5------|7-------7---------------7------|
D|5-------5-------5-------5------|7-------7---------------7------|
A|3-------3-------3-------3------|5-------5---------------5------|
E|-------------------------------|-------------------------------|
                      not pretend
e|------- ------- ------- -------|------- ------- ------- -------|
B|-------------------------------|-------------------------------|
G|5-------5---------------5----/-|7-------7----------------------|
D|-------------------------------|------------------------2------|
A|3-------3---------------3----/-|5-------5----------------------|
E|-------------------------------|------------------------0------|
                      



  G                       C       Bm
e|3------ 3------ ------- 3------|2------ 2------ 2------ 2------|
B|3-------3---------------5------|3-------3-------3-------3------|
G|4-------4---------------5------|4-------4-------4-------4------|
D|5-------5---------------5------|4-------4-------4-------4------|
A|5-------5---------------3------|2-------2-------2-------2------|
E|3-------3----------------------|-------------------------------|
  It'll   work out   like a   fairy   tale,           you love me 
e|------- ------- ------- -------|------- ------- ------- -------|
B|-------------------------------|-------------------------------|
G|------------------------5------|4-------4-------4-------4----/-|
D|5-------5----------------------|-------------------------------|
A|------------------------3------|2-------2-------2-------2----/-|
E|3-------3----------------------|-------------------------------|
  



  C                               G
e|3------ 3------ ------- 3------|3------ 3------ ------- 3------|
B|5-------5---------------5------|3-------3---------------3------|
G|5-------5---------------5------|4-------4---------------4------|
D|5-------5---------------5------|5-------5---------------5------|
A|3-------3---------------3------|5-------5---------------5------|
E|-------------------------------|3-------3---------------3------|
                      in  the end  
e|------- ------- ------- -------|------- ------- ------- -------|
B|-------------------------------|-------------------------------|
G|5-------5---------------5------|-------------------------------|
D|-------------------------------|5-------5---------------5------|
A|3-------3---------------3------|-------------------------------|
E|-------------------------------|3-------3---------------3------|
                                      



  C               F               Bb              Eb
e|3------ 3------ 5------ 5------|1------ 1------ 3------ 3------|
B|5-------5-------6-------6------|3-------3-------4-------4------|
G|5-------5-------5-------5------|3-------3-------3-------3------|
D|5-------5-------3-------3------|3-------3-------1-------1------|
A|3-------3----------------------|1-------1----------------------|
E|-------------------------------|-------------------------------|
  I'll    feel    good again,     I'll   start to live again,
e|------- 3------ ----1-- 1------|------- 6------ ----6-- 6------|    
B|--------5-----------1---1------|--------9-----------8---8------|
G|--------5-----------2---2------|--------7-----------6---6------|
D|--------5-----------3---3------|--------6-----------8---8------|
A|--------3-----------3---3------|--------8-----------6---6------|
E|--------------------1---1------|--------6----------------------|
  



  C               F               Bb              Eb
e|3------ 3------ 5------ 5------|1------ 1------ 3------ 3------|
B|5-------5-------6-------6------|3-------3-------4-------4------|
G|5-------5-------5-------5------|3-------3-------3-------3------|
D|5-------5-------3-------3------|3-------3-------1-------1------|
A|3-------3----------------------|1-------1----------------------|
E|-------------------------------|-------------------------------|
  I       will    smile again,    I'll    never   cry again,
e|------- 3------ ----1-- 1------|------- 6------ ----6-- 6------|
B|--------5-----------1---1------|--------9-----------8---8------|
G|--------5-----------2---2------|--------7-----------6---6------|
D|--------5-----------3---3------|--------6-----------8---8------|
A|--------3-----------3---3------|--------8-----------6---6------|
E|--------------------1---1------|--------6----------------------|
  



  C               F               Bb              Eb
e|3------ 3------ 5------ 5------|1------ 1------ 3------ 3------|
B|5-------5-------6-------6------|3-------3-------4-------4------|
G|5-------5-------5-------5------|3-------3-------3-------3------|
D|5-------5-------3-------3------|3-------3-------1-------1------|
A|3-------3----------------------|1-------1----------------------|
E|-------------------------------|-------------------------------|
  I'll    go  to  work again,     even        to  church again
e|------- 3------ ----1-- 1------|------- 6------ ----6-- 6------|
B|--------5-----------1---1------|--------9-----------8---8------|
G|--------5-----------2---2------|--------7-----------6---6------|
D|--------5-----------3---3------|--------6-----------8---8------|
A|--------3-----------3---3------|--------8-----------6---6------|
E|--------------------1---1------|--------6----------------------|
  



  C               D               G
e|3------ 3------ 5------ 5------|3------ 3------ 3------ 3------|
B|5-------5-------7-------7------|3-------3-------3-------3------|
G|5-------5-------7-------7------|0-------0-------0-------0------|
D|5-------5-------7-------7------|0-------0-------0-------0------|       
A|3-------3-------5-------5------|-------------------------------|
E|-------------------------------|-------------------------------|
  In      our     fairy           tale.
e|------- 3------ ------- 5------|------- ------- 7------ -------|
B|--------5---------------7------|------------8------------------|
G|--------5---------------7------|--------7----------------------|
D|--------5---------------7------|-------------------------------|
A|--------3---------------5------|-------------------------------|
E|-------------------------------|-------------------------------|




  G7                              G6
e|3------ 3------ 3------ 3------|3------ 3------ 3------ 3------|
B|3-------3-------3-------3------|3-------3-------3-------3------|
G|0-------0-------0-------0------|0-------0-------0-------0------|
D|3-------3-------3-------3------|2-------2-------2-------2------|
A|-------------------------------|-------------------------------|
E|-------------------------------|-------------------------------|

e|------- ------- 7------ -------|------- ------- 7---8-- 5------|
B|------------8------------------|------------8------------------|
G|--------7----------------------|-------------------------------|
D|-------------------------------|--------9----------------------|
A|-------------------------------|-------------------------------|
E|-------------------------------|-------------------------------|




  D6
e|7------ 7------ 7------ 7------|
B|7-------7-------7-------7------|
G|7-------7-------7-------7------|
D|0-------0-------0-------0------|
A|-------------------------------|
E|-------------------------------|




  G               C               D        
e|------- 3------ ------- 3------|------- 5---5-- ------- 5------|
B|--------3---------------5------|--------7---7-----------7------|
G|--------4---------------5------|--------7---7-----------7------|
D|--------5---------------5------|--------7---7-----------7------|
A|----------------3--------------|5---------------5--------------|
E|3-----------3------------------|-------------------------------|
  You will be happy       with me     in  our fairy       tale
e|------- 3------ ------- 3------|------- 5------ ------- 5------|
B|--------3---------------5------|--------7---------------7------|
G|--------4---------------5------|--------5---------------5------|
D|--------5---------------5------|--------7---------------7------|
A|--------5---------------3------|--------5---------------5------|
E|--------3----------------------|-------------------------------|
  



  G               C               D
e|------- 3------ ------- 3---3--|------- 5------ ------- 5------|
B|--------3---------------5---5--|--------7---------------7------|
G|--------4---------------5---5--|--------7---------------7------|
D|--------5---------------5---5--|--------7---------------7------|
A|----------------3--------------|5---------------5--------------|
E|3-----------3------------------|-------------------------------|
  You will be happy       with me     in  our fairy       tale
e|------- 3------ ------- 3------|------- 5------ ------- 5------|
B|--------3---------------5------|--------7---------------7------|
G|--------4---------------5------|--------5---------------5------|
D|--------5---------------5------|--------7---------------7------|
A|--------5---------------3------|--------5---------------5------|
E|--------3----------------------|-------------------------------|
  



  G               C               D
e|------- 3------ ------- 3------|------- 5---5-- ------- 5------|
B|--------3---------------5------|--------7---7-----------7------|
G|--------4---------------5------|--------7---7-----------7------|
D|--------5---------------5------|--------7---7-----------7------|
A|----------------3--------------|5---------------5--------------|
E|3-----------3------------------|-------------------------------|
  You will be happy       with me     in  our fairy       tale   
e|------- 3------ ------- 3------|------- 5------ ------- 5------|
B|--------3---------------5------|--------7---------------7------|
G|--------4---------------5------|--------5---------------5------|
D|--------5---------------5------|--------7---------------7------|
A|--------5---------------3------|--------5---------------5------|
E|--------3----------------------|-------------------------------|

                

                                                      x   x   x

e|------- 5------ ------- 5------|------- 5------ ------- 5---5--|
B|--------7---------------7------|--------7---------------7---7--|
G|--------7---------------7------|--------7---------------7---7--|
D|--------7---------------7------|--------7---------------7---7--|
A|5---------------5--------------|5---------------5--------------|
E|-------------------------------|-------------------------------|

e|------- 5------ ------- 5------|------- 5------ ------- 5------|
B|--------7---------------7------|--------7---------------7------|
G|--------5---------------5------|--------5---------------5------|
D|--------7---------------7------|--------7---------------7------|
A|--------5---------------5------|--------5---------------5------|
E|-------------------------------|-------------------------------|
  D7



  G               C               Bm
e|3------ 3------ 3------ 3------|2------ 2------ 2------ 2------|       
B|3-------3-------5-------5------|3-------3-------3-------3------|
G|4-------4-------5-------5------|4-------4-------4-------4------|
D|5-------5-------5-------5------|4-------4-------4-------4------|
A|5-------5-------3-------3------|2-------2-------2-------2------|
E|3-------3----------------------|-------------------------------|
  All of  the times  that I  want so  much           will be  there 
e|------- ------- ------- -------|------- ------- ------- -------|
B|-------------------------------|-------------------------------|
G|------------------------5------|4-------4-------4-------4------|
D|5-------5----------------------|-------------------------------|
A|------------------------3------|2-------2-------2-------2------|
E|3-------3----------------------|-------------------------------|
  



  C                               Dsus4
e|3------ 3------ 3------ 3------|5------ 5------ 5------ 5------|
B|5-------5-------5-------5------|8-------8-------8-------8------|
G|5-------5-------5-------5------|7-------7-------7-------7------|
D|5-------5-------5-------5------|7-------7-------7-------7------|
A|3-------3-------3-------3------|5-------5-------5-------5------|
E|-------------------------------|-------------------------------|
                      and it's true 
e|------- ------- ------- -------|------- ------- ------- -------|
B|-------------------------------|-------------------------------|
G|5-------5---------------5------|7-------7---7---7---9---7------|
D|-------------------------------|----------------------------9--|
A|3-------3---------------3------|5-------5---5---5---7---5------|
E|-------------------------------|----------------------------7--|
 



  G               C               Bm
e|3------ 3------ 3------ 3------|2------ 2------ 2------ 2------|      
B|3-------3-------5-------5------|3-------3-------3-------3------|
G|4-------4-------5-------5------|4-------4-------4-------4------|
D|5-------5-------5-------5------|4-------4-------4-------4------|
A|5-------5-------3-------3------|2-------2-------2-------2------|
E|3-------3----------------------|-------------------------------|
  I  will be  feeling     our gentle  touch.          You love me, 
e|------- ------- ------- -------|------- ------- ------- -------|
B|-------------------------------|-------------------------------|
G|------------------------5------|4-------4-------4-------4------|
D|5-------5----------------------|-------------------------------|
A|------------------------3------|2-------2-------2-------2------|
E|3-------3----------------------|-------------------------------|
  



  C                               G
e|3------ 3------ 3------ 3------|3------ 3------ 3------ 3------|
B|5-------5-------5-------5------|3-------3-------3-------3------|
G|5-------5-------5-------5------|4-------4-------4-------4------|
D|5-------5-------5-------5------|5-------5-------5-------5------|
A|3-------3-------3-------3------|5-------5-------5-------5------|
E|-------------------------------|3-------3-------3-------3------|
                      I   love you                                
e|------- ------- ------- -------|------- ------- ------- -------|
B|-------------------------------|-------------------------------|
G|5-------5---------------5------|-------------------------------|
D|-------------------------------|5-------5-------5-------5------|
A|3-------3---------------3------|-------------------------------|
E|-------------------------------|3-------3-------3-------3------|
                      



  C
e|------- 12----- 12----- 15-----|------- 13----- 13----- 15-----|
B|13------13------13------13-----|--------13------13------13-----|
G|12-----------------------------|-------------------------------|
D|-------------------------------|-------------------------------|
A|-------------------------------|-------------------------------|
E|-------------------------------|-------------------------------|
  Don't           you             un..............der............



                                          x           x   X   X
                                   G
e|12----- ------- ------- -------|10----- ------- ------- -------|
B|13--------------15------13-----|12--------------12-------------|
G|12--------------12------12-----|12--------------12-------------|
D|-------------------------------|----------------12-------------|
A|-------------------------------|-------------------------------|
E|-------------------------------|-------------------------------|
  stand?


[ Tab from: http://www.guitartabs.cc/tabs/t/the_herd/our_fairy_tale_tab.html ]
  C               F               Bb              Eb
e|3------ 3------ 5------ 5------|1------ 1------ 3------ 3------|
B|5-------5-------6-------6------|3-------3-------4-------4------|
G|5-------5-------5-------5------|3-------3-------3-------3------|
D|5-------5-------3-------3------|3-------3-------1-------1------|
A|3-------3----------------------|1-------1----------------------|
E|-------------------------------|-------------------------------|
  I'll    feel    good again,     I'll   start to live again,
e|------- 8------ ----8-- 8------|------- 6------ ----6-- 6------|        
B|--------8----------10--10------|--------9-----------8---8------|
G|--------9----------10--10------|--------7-----------6---6------|
D|-------10----------10--10------|--------6-----------8---8------|
A|-------10-----------8---8------|--------8-----------6---6------|
E|--------8----------------------|--------6----------------------|
  



  C               F               Bb              Eb
e|3------ 3------ 5------ 5------|1------ 1------ 3------ 3------|
B|5-------5-------6-------6------|3-------3-------4-------4------|
G|5-------5-------5-------5------|3-------3-------3-------3------|
D|5-------5-------3-------3------|3-------3-------1-------1------|
A|3-------3----------------------|1-------1----------------------|
E|-------------------------------|-------------------------------|
  I       will    smile again,    I'll    never   cry again,
e|------- 8------ ----8-- 8------|------- 6------ ----6-- 6------|
B|--------8----------10--10------|--------9-----------8---8------|
G|--------9----------10--10------|--------7-----------6---6------|
D|-------10----------10--10------|--------6-----------8---8------|
A|-------10-----------8---8------|--------8-----------6---6------|
E|--------8----------------------|--------6----------------------|
  



  C               F               Bb              Eb
e|3------ 3------ 5------ 5------|1------ 1------ 3------ 3------|
B|5-------5-------6-------6------|3-------3-------4-------4------|
G|5-------5-------5-------5------|3-------3-------3-------3------|
D|5-------5-------3-------3------|3-------3-------1-------1------|
A|3-------3----------------------|1-------1----------------------|
E|-------------------------------|-------------------------------|
  I'll    go  to  work again,     even        to  church again
e|------- 8------ ----8-- 8------|------- 6------ ----6-- 6------|
B|--------8----------10--10------|--------9-----------8---8------|
G|--------9----------10--10------|--------7-----------6---6------|
D|-------10----------10--10------|--------6-----------8---8------|
A|-------10-----------8---8------|--------8-----------6---6------|
E|--------8----------------------|--------6----------------------|
  



  C               D               G
e|3------ 3------ 5------ 5------|3------ 3------ 3------ 3------|
B|5-------5-------7-------7------|3-------3-------3-------3------|
G|5-------5-------7-------7------|0-------0-------0-------0------|
D|5-------5-------7-------7------|0-------0-------0-------0------|       
A|3-------3-------5-------5------|-------------------------------|
E|-------------------------------|-------------------------------|
  In      our     fairy           tale.
e|------- 3------ ------- 5------|------- ------- 7------ -------|
B|--------5---------------7------|------------8------------------|
G|--------5---------------7------|--------7----------------------|
D|--------5---------------7------|-------------------------------|
A|--------3---------------5------|-------------------------------|
E|-------------------------------|-------------------------------|




  G7                              G6
e|3------ 3------ 3------ 3------|3------ 3------ 3------ 3------|
B|3-------3-------3-------3------|3-------3-------3-------3------|
G|0-------0-------0-------0------|0-------0-------0-------0------|
D|3-------3-------3-------3------|2-------2-------2-------2------|
A|-------------------------------|-------------------------------|
E|-------------------------------|-------------------------------|

e|------- ------- 7------ -------|------- ------- 7---8-- 5------|
B|------------8------------------|------------8------------------|
G|--------7----------------------|-------------------------------|
D|-------------------------------|--------9----------------------|
A|-------------------------------|-------------------------------|
E|-------------------------------|-------------------------------|




  D6
e|7------ 7------ 7------ 7------|
B|7-------7-------7-------7------|
G|7-------7-------7-------7------|
D|0-------0-------0-------0------|
A|-------------------------------|
E|-------------------------------|        




  G               C               Bm
e|3------ 3------ 3------ 3------|2------ 2------ 2------ 2------|
B|3-------3-------5-------5------|3-------3-------3-------3------|
G|4-------4-------5-------5------|4-------4-------4-------4------|
D|5-------5-------5-------5------|4-------4-------4-------4------|
A|5-------5-------3-------3------|2-------2-------2-------2------|
E|3-------3----------------------|-------------------------------|

e|------- ------- ------- -------|------- ------- ------- -------|
B|-------------------------------|-------------------------------|
G|------------------------5------|4-------4---------------4------|
D|5-------5----------------------|-------------------------------|
A|------------------------3------|2-------2---------------2------|
E|3-------3----------------------|-------------------------------|


e|------- ------- ----5-- 7---7--|8---5-- ------- ----5-- 7------|
B|----5---7---8------------------|----------------------------8--|
G|7------------------------------|-------------------------------|
D|-------------------------------|-------------------------------|
A|-------------------------------|-------------------------------|
E|-------------------------------|-------------------------------|




  C                               Dsus4
e|3------ 3------ 3------ 3------|5------ 5------ 5------ 5------|
B|5-------5-------5-------5------|8-------8-------8-------8------|
G|5-------5-------5-------5------|7-------7-------7-------7------|
D|5-------5-------5-------5------|7-------7-------7-------7------|
A|3-------3-------3-------3------|5-------5-------5-------5------|
E|-------------------------------|-------------------------------|

e|------- ------- ------- -------|------- ------- ------- -------|
B|-------------------------------|-------------------------------|
G|5-------5---------------5------|7-------7---------------9------|
D|-------------------------------|-------------------------------|
A|3-------3---------------3------|5-------5---------------7------|
E|-------------------------------|-------------------------------|

e|------- ------- ------- -------|------- ----5-- ------- -------|
B|--------------------5-------8--|-------------------------------|
G|------------------------7------|-------------------------------|
D|-------------------------------|-------------------------------|
A|-------------------------------|-------------------------------|
E|-------------------------------|-------------------------------|




  G                       C       Bm
e|3------ 3------ ------- 3------|2------ 2------ ------- 2------|
B|3-------3---------------5------|3-------3---------------3------|
G|4-------4---------------5------|4-------4---------------4------|
D|5-------5---------------5------|4-------4---------------4------|
A|5-------5---------------3------|2-------2---------------2------|
E|3-------3----------------------|-------------------------------|

e|------- ------- ------- -------|------- ------- ------- -------|
B|-------------------------------|-------------------------------|
G|------------------------5------|4-------4---------------4------|
D|5-------5----------------------|-------------------------------|
A|------------------------3------|2-------2---------------2------|
E|3-------3----------------------|-------------------------------|

e|------- ------- ----5-- 7---7--|8---5-- ------- ----5-- 7------|
B|----5---7---8------------------|----------------------------8--|
G|7------------------------------|-------------------------------|
D|-------------------------------|-------------------------------|
A|-------------------------------|-------------------------------|
E|-------------------------------|-------------------------------|




  C                                       Dsus4
e|3------ 3------ ------- 3------|------- 5------ ------- 5------|
B|5-------5---------------5------|--------8---------------8------|
G|5-------5---------------5------|--------7---------------7------|
D|5-------5---------------5------|--------7---------------7------|
A|3-------3---------------3------|--------5---------------5------|
E|-------------------------------|-------------------------------|

e|------- ------- ------- -------|------- ------- ------- -------|
B|-------------------------------|-------------------------------|
G|5-------5---------------5------|--------7---------------7------|
D|-------------------------------|-------------------------------|
A|3-------3---------------3------|--------5---------------5------|
E|-------------------------------|-------------------------------|

e|------- ------- ------- ----5--|------- ------- 5------ -------|
B|--------------------5----------|-------------------------------|
G|------------------------7------|-------------------------------|
D|-------------------------------|-------------------------------|
A|-------------------------------|-------------------------------|
E|-------------------------------|-------------------------------|    



                                 (.
                                  G
e|------- 5------ ------- 5------|3------ ------- ------- -------|
B|--------8---------------8------|3------------------------------|
G|--------7---------------7------|4------------------------------|
D|--------7---------------7------|5------------------------------|
A|--------5---------------5------|5------------------------------|
E|-------------------------------|3------------------------------|

e|------- ------- ------- -------|------- ------- ------- -------|
B|-------------------------------|8------------------------------|
G|--------7---------------7------|-------------------------------|
D|-------------------------------|5------------------------------|
A|--------5---------------5------|-------------------------------|
E|-------------------------------|-------------------------------|

e|5------ ------- 5------ -------|10----- ------- ------- -------|
B|-------------------------------|12-----------------------------|
G|-------------------------------|12-----------------------------|
D|-------------------------------|-------------------------------|
A|-------------------------------|-------------------------------|
E|-------------------------------|-------------------------------|



                          x

e|------- ------- ------- -------|
B|-------------------------------|
G|-------------------------------|
D|-------------------------------|
A|-------------------------------|
E|-------------------------------|               




  C               F               Bb              Eb
e|3------ 3------ 5------ 5------|1------ 1------ 3------ 3------|
B|5-------5-------6-------6------|3-------3-------4-------4------|
G|5-------5-------5-------5------|3-------3-------3-------3------|
D|5-------5-------3-------3------|3-------3-------1-------1------|
A|3-------3----------------------|1-------1----------------------|
E|-------------------------------|-------------------------------|
  I'll    feel    good again,     I'll   start to live again,
e|------- 8------ ----8-- 8------|------- 6------ ----6-- 6------|    
B|--------8----------10--10------|--------9-----------8---8------|
G|--------9----------10--10------|--------7-----------6---6------|
D|-------10----------10--10------|--------6-----------8---8------|
A|-------10-----------8---8------|--------8-----------6---6------|
E|--------8----------------------|--------6----------------------|
  



  C               F               Bb              Eb
e|3------ 3------ 5------ 5------|1------ 1------ 3------ 3------|
B|5-------5-------6-------6------|3-------3-------4-------4------|
G|5-------5-------5-------5------|3-------3-------3-------3------|
D|5-------5-------3-------3------|3-------3-------1-------1------|
A|3-------3----------------------|1-------1----------------------|
E|-------------------------------|-------------------------------|
  I       will    smile again,    I'll    never   cry again,
e|------- 8------ ----8-- 8------|------- 6------ ----6-- 6------|    
B|--------8----------10--10------|--------9-----------8---8------|
G|--------9----------10--10------|--------7-----------6---6------|
D|-------10----------10--10------|--------6-----------8---8------|
A|-------10-----------8---8------|--------8-----------6---6------|
E|--------8----------------------|--------6----------------------|
  



  C               F               Bb              Eb
e|3------ 3------ 5------ 5------|1------ 1------ 3------ 3------|
B|5-------5-------6-------6------|3-------3-------4-------4------|
G|5-------5-------5-------5------|3-------3-------3-------3------|
D|5-------5-------3-------3------|3-------3-------1-------1------|
A|3-------3----------------------|1-------1----------------------|
E|-------------------------------|-------------------------------|
  I'll    go  to  work again,     even        to  church again
e|------- 8------ ----8-- 8------|------- 6------ ----6-- 6------|    
B|--------8----------10--10------|--------9-----------8---8------|
G|--------9----------10--10------|--------7-----------6---6------|
D|-------10----------10--10------|--------6-----------8---8------|
A|-------10-----------8---8------|--------8-----------6---6------|
E|--------8----------------------|--------6----------------------|




  C               D               G
e|3------ 3------ 5------ 5------|3------ 3------ 3------ 3------|
B|5-------5-------7-------7------|3-------3-------3-------3------|
G|5-------5-------7-------7------|0-------0-------0-------0------|
D|5-------5-------7-------7------|0-------0-------0-------0------|       
A|3-------3-------5-------5------|-------------------------------|
E|-------------------------------|-------------------------------|
  In      our     fairy           tale.
e|------- 3------ ------- 5------|------- ------- 7------ -------|
B|--------5---------------7------|------------8------------------|
G|--------5---------------7------|--------7----------------------|
D|--------5---------------7------|-------------------------------|
A|--------3---------------5------|-------------------------------|
E|-------------------------------|-------------------------------|




  G7                              G6
e|3------ 3------ 3------ 3------|3------ 3------ 3------ 3------|
B|3-------3-------3-------3------|3-------3-------3-------3------|
G|0-------0-------0-------0------|0-------0-------0-------0------|
D|3-------3-------3-------3------|2-------2-------2-------2------|
A|-------------------------------|-------------------------------|
E|-------------------------------|-------------------------------|

e|------- ------- 7------ -------|------- ------- 7---8-- 5------|
B|------------8------------------|------------8------------------|
G|--------7----------------------|-------------------------------|
D|-------------------------------|--------9----------------------|
A|-------------------------------|-------------------------------|
E|-------------------------------|-------------------------------|




  D6
e|7------ 7------ 7------ 7------|
B|7-------7-------7-------7------|
G|7-------7-------7-------7------|
D|0-------0-------0-------0------|
A|-------------------------------|
E|-------------------------------|              




  G               C               D
e|------- 3------ ------- 3------|------- 5------ ------- 5------|
B|--------3---------------5------|--------7---------------7------|
G|--------4---------------5------|--------7---------------7------|
D|--------5---------------5------|--------7---------------7------|
A|----------------3--------------|5---------------5--------------|
E|3-----------3------------------|-------------------------------|
  You will be happy       with me     in  our fairy       tale
e|------- 3------ ------- 3------|------- 5------ ------- 5------|
B|--------3---------------5------|--------7---------------7------|
G|--------4---------------5------|--------5---------------5------|
D|--------5---------------5------|--------7---------------7------|
A|--------5---------------3------|--------5---------------5------|
E|--------3----------------------|-------------------------------|
  
e|7---5-- 7---8-- ----7-- 8--10--|------- ------- ------- -------|
B|-------------------------------|-------------------------------|
G|-------------------------------|-------------------------------|
D|-------------------------------|-------------------------------|
A|-------------------------------|-------------------------------|
E|-------------------------------|-------------------------------|




  G               C               D
e|------- 3------ ------- 3------|------- 5------ ------- 5------|
B|--------3---------------5------|--------7---------------7------|
G|--------4---------------5------|--------7---------------7------|
D|--------5---------------5------|--------7---------------7------|
A|----------------3--------------|5---------------5--------------|
E|3-----------3------------------|-------------------------------|
  You will be happy       with me     in  our fairy       tale
e|------- 3------ ------- 3------|------- 5------ ------- 5------|
B|--------3---------------5------|--------7---------------7------|
G|--------4---------------5------|--------5---------------5------|
D|--------5---------------5------|--------7---------------7------|
A|--------5---------------3------|--------5---------------5------|
E|--------3----------------------|-------------------------------|
  
e|7---5-- 7---8-- ----7-- 8--10--|------- ------- ------- -------|
B|-------------------------------|-------------------------------|
G|-------------------------------|-------------------------------|
D|-------------------------------|-------------------------------|
A|-------------------------------|-------------------------------|
E|-------------------------------|-------------------------------|




  G               C               D
e|------- 3------ ------- 3------|------- 5------ ------- 5------|
B|--------3---------------5------|--------7---------------7------|
G|--------4---------------5------|--------7---------------7------|
D|--------5---------------5------|--------7---------------7------|
A|----------------3--------------|5---------------5--------------|
E|3-----------3------------------|-------------------------------|
  You will be happy       with me     in  our fairy       tale   
e|------- 3------ ------- 3------|------- 5------ ------- 5------|
B|--------3---------------5------|--------7---------------7------|
G|--------4---------------5------|--------5---------------5------|
D|--------5---------------5------|--------7---------------7------|
A|--------5---------------3------|--------5---------------5------|
E|--------3----------------------|-------------------------------|

e|7---5-- 7---8-- ----7-- 8--10--|------- ------- ------- -------|
B|-------------------------------|-------------------------------|
G|-------------------------------|-------------------------------|
D|-------------------------------|-------------------------------|
A|-------------------------------|-------------------------------|
E|-------------------------------|-------------------------------|

                

                                                      x   x   x

e|------- 5------ ------- 5------|------- 5------ ------- 5------|
B|--------7---------------7------|--------7---------------7------|
G|--------7---------------7------|--------7---------------7------|
D|--------7---------------7------|--------7---------------7------|
A|5---------------5--------------|5---------------5--------------|
E|-------------------------------|-------------------------------|

e|------- 5------ ------- 5------|------- 5------ ------- 5------|
B|--------7---------------7------|--------7---------------7------|
G|--------5---------------5------|--------5---------------5------|
D|--------7---------------7------|--------7---------------7------|
A|--------5---------------5------|--------5---------------5------|
E|-------------------------------|-------------------------------|

e|7---5-- 7---8-- ----7-- 8--10--|------- ------- ------- -------|
B|-------------------------------|-------------------------------|
G|-------------------------------|-------------------------------|
D|-------------------------------|-------------------------------|
A|-------------------------------|-------------------------------|
E|-------------------------------|-------------------------------|




  G               C               D
e|------- 3------ ------- 3------|------- 5------ ------- 5------|
B|--------3---------------5------|--------7---------------7------|
G|--------4---------------5------|--------7---------------7------|
D|--------5---------------5------|--------7---------------7------|
A|----------------3--------------|5---------------5--------------|
E|3-----------3------------------|-------------------------------|
  You will be happy       with me     in  our fairy       tale
e|------- 3------ ------- 3------|------- 5---5-- ------- 5------|
B|--------3---------------5------|--------7---7-----------7------|
G|--------4---------------5------|--------5---5-----------5------|
D|--------5---------------5------|--------7---7-----------7------|
A|--------5---------------3------|--------5---5-----------5------|
E|--------3----------------------|-------------------------------|
  
e|7---5-- 7---8-- ----7-- 8--10--|------- ------- ------- -------|
B|-------------------------------|-------------------------------|
G|-------------------------------|-------------------------------|
D|-------------------------------|-------------------------------|
A|-------------------------------|-------------------------------|
E|-------------------------------|-------------------------------|




  G               C               D
e|------- 3------ ------- 3------|------- 5------ ------- 5------|
B|--------3---------------5------|--------7---------------7------|
G|--------4---------------5------|--------7---------------7------|
D|--------5---------------5------|--------7---------------7------|
A|----------------3--------------|5---------------5--------------|
E|3-----------3------------------|-------------------------------|
  You will be happy       with me     in  our fairy       tale
e|------- 3------ ------- 3------|------- 5---5-- ------- 5------|
B|--------3---------------5------|--------7---7-----------7------|
G|--------4---------------5------|--------5---5-----------5------|
D|--------5---------------5------|--------7---7-----------7------|
A|--------5---------------3------|--------5---5-----------5------|
E|--------3----------------------|-------------------------------|

e|7---5-- 7---8-- ----7-- 8--10--|------- ------- ------- -------|
B|-------------------------------|-------------------------------|
G|-------------------------------|-------------------------------|
D|-------------------------------|-------------------------------|
A|-------------------------------|-------------------------------|
E|-------------------------------|-------------------------------|
  ..............................Fade.............................



  G               C               D
e|------- 3------ ------- 3------|------- 5------ ------- 5------|
B|--------3---------------5------|--------7---------------7------|
G|--------4---------------5------|--------7---------------7------|
D|--------5---------------5------|--------7---------------7------|
A|----------------3--------------|5---------------5--------------|
E|3-----------3------------------|-------------------------------|
  You will be happy       with me     in  our fairy       tale   
e|------- 3------ ------- 3------|------- 5---5-- ------- 5------|
B|--------3---------------5------|--------7---7-----------7------|
G|--------4---------------5------|--------5---5-----------5------|
D|--------5---------------5------|--------7---7-----------7------|
A|--------5---------------3------|--------5---5-----------5------|
E|--------3----------------------|-------------------------------|

e|7---5-- 7---8-- ----7-- 8--10--|------- ------- ------- -------|
B|-------------------------------|-------------------------------|
G|-------------------------------|-------------------------------|
D|-------------------------------|-------------------------------|
A|-------------------------------|-------------------------------|
E|-------------------------------|-------------------------------|
  ...............................................................
                


  G               C               D
e|------- 3------ ------- 3------|------- 5------ ------- 5------|
B|--------3---------------5------|--------7---------------7------|
G|--------4---------------5------|--------7---------------7------|
D|--------5---------------5------|--------7---------------7------|
A|----------------3--------------|5---------------5--------------|
E|3-----------3------------------|-------------------------------|
  You will be happy       with me     in  our fairy       tale   
e|------- 3------ ------- 3------|------- 5---5-- ------- 5------|
B|--------3---------------5------|--------7---7-----------7------|
G|--------4---------------5------|--------5---5-----------5------|
D|--------5---------------5------|--------7---7-----------7------|
A|--------5---------------3------|--------5---5-----------5------|
E|--------3----------------------|-------------------------------|

e|7---5-- 7---8-- ----7-- 8--10--|------- ------- ------- -------|
B|-------------------------------|-------------------------------|
G|-------------------------------|-------------------------------|
D|-------------------------------|-------------------------------|
A|-------------------------------|-------------------------------|
E|-------------------------------|-------------------------------|
  ...............................................................








        B  Bend
        R  Release
        /  Slide up
        \  Slide down
        H  Hammer-on
        P  Pull-off
        ~  Vibrato
        +  Harmonic
        x  Drumming reference
        .  Play note like a dot in standard notation
        ^  Ties two notes together
        (. Pause
Comments