The Herd - I Dont Want Our Loving To Die Chords & Tabs

 

I Dont Want Our Loving To Die Chords & Tabs

The Herd Chords & Tabs

Version: 1 Type: Tab 0 ratings
1 star 2 stars 3 stars 4 stars 5 stars
comments

I Dont Want Our Loving To Die Tab

   
----------------------------------------------------------------

     THE HERD - I DON'T WANT OUR LOVING TO DIE (Howard/Blaikley)
                Released as a single with OUR FAIRY TALE as B 
                side in 1968.

----------------------------------------------------------------

     Tabbed by:PJVillanueva




     At age 17 Peter Frampton left school to join The Herd. They 
    scored some hits in the UK starting in 1967. Both songs on
    the above mentioned single are The Herds' best for me. 
    I DON'T WANT OUR LOVING TO DIE was a top ten hit in the first
    half of 1968, but Frampton soon left the group (1969) to form 
    Humble Pie with ex Small Faces guitarist/singer Steve Marriot,
    ex Spooky Tooth bassist Greg Ridley and drummer Jerry Shirley.  




Hold me, you can help yourself
So try not to mislead her
You've done many foolish things
But deep inside you need her...

Ooooh!

You've got to believe me, just open your mind
My tangled emotions I need to unwind
'cause baby, don't you know I'll never leave you
Never wanted to deceive you although I do
           
But I don't want our loving to die
And I'm so tired of living a lie
Though I know I've been weak I can try
Yeah, I'll try.

You've got to believe me, I mean what I said
I'm trying not to wander when you go away
But, baby tough I'll never make advances
Seems I have no way the chances to go astray

But I don't want our loving to die
And I'm so tired of living a lie
Though I know I've been weak I can try
Yeah, I'll try.

'cause baby, don't you know I'll never leave you
Never wanted to deceive you although I do

No, I don't want our loving to die
And I'm so tired of living a lie
Though I know I've been weak I can try
Yeah, I'll try.

Baaaa Um ba ba ba ba.    Baaaa Um ba ba ba ba
Baaaa Um ba ba ba ba.    Baaaa Um ba ba ba ba






  Em                              Am                            
e|7------ ------- ------- -------|8------ ------- ------- -------|
B|8------------------------------10------------------------------|
G|9------------------------------|9------------------------------|
D|9------------------------------|7------------------------------|
A|7------------------------------|-------------------------------|
E|-------------------------------|-------------------------------|
                      Help  me,  you can help yourself           
e|------- ------- 10-7-10 -------|------- ------- 5------ -------|
B|--------------8----------------|--------------5----------------|
G|------------9------------------|------------5------------------|
D|----------9--------------------|----------7--------------------|
A|-------------------------------|-------------------------------|
E|-------------------------------|-------------------------------|



  Dm7                             G7sus4          G7
e|8------ ------- ------- -------|8------ ------- 7------ -------|
B|6------------------------------|6---------------6--------------|
G|5------------------------------|7---------------7--------------|
D|7------------------------------|5---------------5--------------|
A|5------------------------------|-------------------------------|
E|-------------------------------|-------------------------------|
             So   try not to mislead  her
e|------- ------- 5--8--- -------|------- ------- ------- -------|
B|--------------6------6---------|-------------------------------|
G|----6------7-----------7-------|-----------------9-------------|
D|--------7----------------------|------------10-----12----------|
A|-------------------------------|---------------12--------------|
E|-------------------------------|-------------------------------|



  Em                              Am
e|7------ ------- ------- -------|8------ ------- ------- -------|
B|8------------------------------10------------------------------|
G|9------------------------------|9------------------------------|
D|9------------------------------|7------------------------------|
A|7------------------------------|-------------------------------|
E|-------------------------------|-------------------------------|
         You've  done  many  foolish  things                   But
e|------- ----10- ------- -------|------- ------5 ------- -------|
B|----------8--------------------|------------5------------------|
G|--------9----------------------|----------5--------------------|
D|------9------------------------|--------7----------------------|
A|----7--------------------------|-------------------------------|
E|-------------------------------|-------------------------------|



  Dm7                             G13
e|8------ ------- ------- -------|3------ ------- ------- -------|
B|6------------------------------|5------------------------------|
G|5------------------------------|4------------------------------|
D|7------------------------------|3------------------------------|
A|5------------------------------|-------------------------------|
E|-------------------------------|3------------------------------|
    deep  inside              you need 
e|------- ------- ------- -------|------- ------- ------- -------|
B|-------------------------------|--------------------8----------|
G|-------------------------------|------------------9------------|
D|-------------------------------|---------------10--------------|
A|-------------------------------|-------------10----------------|
E|-------------------------------|-------------------------------|


 (.
  G7+5
e|3------ ------- ------- -------|------- -------|
B|4------------------------------|---------------|
G|4------------------------------|---------------|
D|3------------------------------|---------------|
A|-------------------------------|---------------|
E|3------------------------------|---------------|
  her
e|------- ------- ------- -------|------- -------|
B|--------------------8----------|---------------|
G|------------------8------------|---------------|
D|----------------9--------------|---------------|
A|-------------10----------------|---------------|
E|-------------------------------|---------------|



          Cmaj7           F                                G
e|------- 8------ ------- 8------|------- 8------ ------- 10-----|
B|-------12--------------10------|-------10---------------12-----|
G|-------12--------------10------|-------10---------------12-----|
D|-------------------------------|-------------------------------|
A|-------------------------------|-------------------------------|
E|-------------------------------|-------------------------------|



                                           Am     Bm-5
e|------- 10----- ------- 10-----|------- 12----- 13----- -------|
B|--------12--------------12-----|--------13------15-------------|
G|--------12--------------12-----|--------14------16-------------|
D|-------------------------------|-------------------------------|
A|-------------------------------|-------------------------------|
E|-------------------------------|-------------------------------|
                                                          Ooooohh!


          C               F                                G
e|------- 8------ ------- 8------|------- 8------ ------- 10-----|
B|--------8--------------10------|-------10---------------12-----|
G|--------9--------------10------|-------10---------------12-----|
D|-------------------------------|-------------------------------|
A|-------------------------------|-------------------------------|
E|-------------------------------|-------------------------------|


                                  x       x       X       X   
                                           Am      Bm-5
e|------- 10----- ------- 10-----|------- 12----- 13----- -------|
B|--------12--------------12-----|--------13------15-------------|
G|--------12--------------12-----|--------14------16-------------|
D|-------------------------------|-------------------------------|
A|-------------------------------|-------------------------------|
E|-------------------------------|-------------------------------|
                                                          You've


          C                               Cmaj7
e|------- 8------ ------- 8------|------- 8------ ------- 8------|
B|--------8---------------8------|-------12--------------12------|
G|--------9---------------9------|-------12--------------12------|
D|-------------------------------|-------------------------------|
A|-------------------------------|-------------------------------|
E|-------------------------------|-------------------------------|
  got     to      believe                 me,             just 
e|------- ------- ------- -------|------- ------- ------- -------|
B|-------------------------------|-------------------------------|
G|-------------------------------|-------------------------------|
D|-------------------------------|-------------------------------|
A|3---------------3--------------|3---------------5-/-7----------|
E|-------------------------------|-------------------------------|



          F
e|------- 8------ ------- 8------|------- 8---8-- ------- 8------|
B|-------10--------------10------|-------10--10----------10------|
G|-------10--------------10------|-------10--10----------10------|
D|-------------------------------|-------------------------------|
A|-------------------------------|-------------------------------|
E|-------------------------------|-------------------------------|
  open            your    mind                             My 
e|------- ------- ------- -------|------- ------- ------- -------|
B|-------------------------------|-------------------------------|
G|-------------------------------|-------------------------------|
D|-------------------------------|-------------------------------|
A|-------------------------------|------------------------3------|
E|1---------------1--------------|1---------------3-/-5----------|



          C                               Cmaj7
e|------- 8------ ------- 8------|------- 8---8-- ------- 8------|
B|--------8---------------8------|-------12--12----------12------|
G|--------9---------------9------|-------12--12----------12------|
D|-------------------------------|-------------------------------|
A|-------------------------------|-------------------------------|
E|-------------------------------|-------------------------------|
  tangled         emotions                                I 
e|------- ------- ------- -------|------- ------- ------- -------|
B|-------------------------------|-------------------------------|
G|-------------------------------|-------------------------------|
D|-------------------------------|-------------------------------|
A|3---------------3--------------|3---------------5-/-7----------|
E|-------------------------------|-------------------------------|



          F
e|------- 8------ ------- 8------|------- 8---8-- ------- 8------|
B|-------10--------------10------|-------10--10----------10------|
G|-------10--------------10------|-------10--10----------10------|
D|-------------------------------|-------------------------------|
A|-------------------------------|-------------------------------|
E|-------------------------------|-------------------------------|
  need    to      unwind                                 'cause
e|------- ------- ------- -------|------- ------- ------- -------|
B|-------------------------------|-------------------------------|
G|-------------------------------|-------------------------------|
D|-------------------------------|-------------------------------|
A|-------------------------------|------------------------3------|
E|1---------------1--------------|1---------------3-/-5----------|



          C
e|------- 8------ ------- 8------|------- 8------ ------- 8------|
B|--------8---------------8------|--------8---------------8------|
G|--------9---------------9------|--------9---------------9------|
D|-------------------------------|-------------------------------|
A|-------------------------------|-------------------------------|
E|-------------------------------|-------------------------------|   
  baby,                           don't   you know   I'll never 
e|------- 3------ ------- 3------|------- 3------ ------- 3------|
B|--------5---------------5------|--------5---------------5------|
G|--------5---------------5------|--------5---------------5------|
D|--------5---------------5------|--------5---------------5------|
A|--------3---------------3------|--------3---------------3------|
E|-------------------------------|-------------------------------|



          E
e|------- 7------ ------- 7------|------- 7------ ------- 7------|
B|--------9---------------9------|--------9---------------9------|
G|--------9---------------9------|--------9---------------9------|
D|-------------------------------|-------------------------------|
A|-------------------------------|-------------------------------|
E|-------------------------------|-------------------------------|
  leave   you                     Never       wanted      to de...
e|------- 0------ ------- 0------|------- 0------ ------- 0------|
B|--------0---------------0------|--------0---------------0------|
G|--------1---------------1------|--------1---------------1------|
D|--------2---------------2------|--------2---------------2------|
A|--------2---------------2------|--------2---------------2------|
E|--------0---------------0------|--------0---------------0------|



          F                
e|------- 8------ ------- 8------|------- 8------ ------- 8------|
B|-------10--------------10------|-------10--------------10------|
G|-------10--------------10------|-------10--------------10------|
D|-------------------------------|-------------------------------|
A|-------------------------------|-------------------------------|
E|-------------------------------|-------------------------------|
  ceive   you                     although        I       do
e|------- 1------ ------- 1------|------- 1------ ------- 1------|
B|--------1---------------1------|--------1---------------1------|
G|--------2---------------2------|--------2---------------2------|
D|--------3---------------3------|--------3---------------3------|
A|--------3---------------3------|--------3---------------3------|
E|--------1---------------1------|--------1---------------1------|



           G
e|------- 10----- ------- 10-----|10----- ------- 10----- -------|
B|--------12--------------12-----|12--------------12-------------|
G|--------12--------------12-----|12--------------12-------------|
D|-------------------------------|-------------------------------|
A|-------------------------------|-------------------------------|
E|-------------------------------|-------------------------------|
                                                  But      I 
e|------- 3------ 3---3-- ----3--|----3-- ----3-- 3------ 3------|
B|--------3-------3---3-------3--|----3-------3---3-------3------|
G|--------5-------5---5-------5--|----5-------5---5-------5------|
D|--------5-------5---5-------5--|----5-------5---5-------5------|
A|--------5-------5---5-------5--|----5-------5---5-------5------|
E|--------3-------3---3-------3--|----3-------3---3-------3------|     
          Gsus4


          C                               F
e|------- 8------ ------- 8------|------- 8------ ------- 8------|
B|--------8---------------8------|-------10--------------10------|
G|--------9---------------9------|-------10--------------10------|
D|-------------------------------|-------------------------------|
A|-------------------------------|-------------------------------|
E|-------------------------------|-------------------------------|
  don't    want   our     loving                  to      die
e|------- 3------ ------- 3------|------- 1------ ------- 1------|
B|--------5---------------5------|--------1---------------1------|
G|--------5---------------5------|--------2---------------2------|
D|--------5---------------5------|--------3---------------3------|
A|--------3---------------3------|--------3---------------3------|
E|-------------------------------|--------1---------------1------|



           G                               Am      Bm-5
e|------- 10----- ------- 10-----|------- 12----- 13----- -------|
B|--------12--------------12-----|--------13------15-------------|
G|--------12--------------12-----|--------14------16-------------|
D|-------------------------------|-------------------------------|
A|-------------------------------|-------------------------------|
E|-------------------------------|-------------------------------|
                                                  And     I'm 
e|------- 3------ 3---3-- ----3--|----3-- 3---3-- 3------ 3------|
B|--------3-------3---3-------3--|----3---3---3---3-------3------|
G|--------5-------5---5-------5--|----5---5---5---5-------5------|
D|--------5-------5---5-------5--|----5---5---5---5-------5------|
A|--------5-------5---5-------5--|----5---5---5---5-------5------|
E|--------3-------3---3-------3--|----3---3---3---3-------3------|
          Gsus4


          C                               F
e|------- 8------ ------- 8------|------- 8------ ------- 8------|
B|--------8---------------8------|-------10--------------10------|
G|--------9---------------9------|-------10--------------10------|
D|-------------------------------|-------------------------------|
A|-------------------------------|-------------------------------|
E|-------------------------------|-------------------------------|
  so      tired   of      living                   a      lie
e|------- 3------ ------- 3------|------- 1------ ------- 1------|
B|--------5---------------5------|--------1---------------1------|
G|--------5---------------5------|--------2---------------2------|
D|--------5---------------5------|--------3---------------3------|
A|--------3---------------3------|--------3---------------3------|
E|-------------------------------|--------1---------------1------|



           G                               Am      Bm-5
e|------- 10----- ------- 10-----|------- 12----- 13----- -------|
B|--------12--------------12-----|--------13------15-------------|
G|--------12--------------12-----|--------14------16-------------|
D|-------------------------------|-------------------------------|
A|-------------------------------|-------------------------------|
E|-------------------------------|-------------------------------|
                                                  Though  I
e|------- 3------ 3---3-- ----3--|----3-- 3------ 3------ 3------|
B|--------3-------3---3-------3--|----3---3-------3-------3------|
G|--------5-------5---5-------5--|----5---5-------5-------5------|
D|--------5-------5---5-------5--|----5---5-------5-------5------|
A|--------5-------5---5-------5--|----5---5-------5-------5------|
E|--------3-------3---3-------3--|----3---3-------3-------3------|
          Gsus4


          C                               E
e|------- 8------ ------- 8------|------- 7------ ------- 7------|       
B|--------8---------------8------|--------9---------------9------|
G|--------9---------------9------|--------9---------------9------|
D|-------------------------------|-------------------------------|
A|-------------------------------|-------------------------------|
E|-------------------------------|-------------------------------|
  know    I've    been    weak            I       can     try
e|------- 3------ ------- 3------|------- 0------ ------- 0------|
B|--------5---------------5------|--------0---------------0------|
G|--------5---------------5------|--------1---------------1------|
D|--------5---------------5------|--------2---------------2------|
A|--------3---------------3------|--------2---------------2------|
E|-------------------------------|--------0---------------0------|



          Am
e|------- 5------ ------- 5------|------- 5------ ------- -------|
B|--------5---------------5------|--------5----------------------|
G|--------5---------------5------|--------5----------------------|
D|-------------------------------|-------------------------------|
A|-------------------------------|-------------------------------|
E|-------------------------------|-------------------------------|
                                          Yeah,   I'll    
e|------- 0---0-- ----0-- -------|------- ----0-- ----0-- -------|
B|--------1---0-------0----------|------------0-------0----------|    
G|--------2---2-------2----------|------------2-------2----------|
D|--------2---2-------2----------|------------2-------2----------|
A|--------0---0-------0----------|------------0-------0----------|
E|-------------------------------|-------------------------------|
              Asus2


  Gsus4
e|8------ ------- 8------ -------|8---8-- ----8-- 8------ 8------|
B|8---------------8--------------|8---8-------8---8-------8------|
G|7---------------7--------------|7---7-------7---7-------7------|
D|-------------------------------|-------------------------------|
A|-------------------------------|-------------------------------|
E|-------------------------------|-------------------------------|
  try.
e|------- ------- 3------ ----3--|----3-- 3------ 3------ 3------|
B|----------------3-----------3--|----3---3-------3-------3------|
G|----------------5-----------5--|----5---5-------5-------5------|
D|----------------5-----------5--|----5---5-------5-------5------|
A|----------------5-----------5--|----5---5-------5-------5------|
E|----------------3-----------3--|----3---3-------3-------3------|
                  Gsus4


                                  x  x  x x  x  x X  X  X X  X  X  
  G                           Em
e|7------ ------- 7------ ---12--|------- 12----- ---12-- -------|
B|8---------------8----------12--|--------12---------12----------|
G|7---------------7----------12--|--------12---------12----------|
D|-------------------------------|-------------------------------|
A|-------------------------------|-------------------------------|
E|-------------------------------|-------------------------------|     
                                                          You've
e|------- ------- 3------ ----3--|----3-- 3------ 3------ -------|
B|----------------3-----------3--|----3---3-------3--------------|
G|----------------4-----------4--|----4---4-------4--------------|
D|----------------5-----------5--|----5---5-------5--------------|
A|----------------5-----------5--|----5---5-------5--------------|
E|----------------3-----------3--|----3---3-------3--------------|       



          C                               Cmaj7
e|------- 8------ ------- 8------|------- 8------ ------- 8------|
B|--------8---------------8------|-------12--------------12------|
G|--------9---------------9------|-------12--------------12------|
D|-------------------------------|-------------------------------|
A|-------------------------------|-------------------------------|
E|-------------------------------|-------------------------------|
  got     to      believe                 me,             I  
e|------- ------- ------- -------|------- ------- ------- -------|
B|-------------------------------|-------------------------------|
G|-------------------------------|-------------------------------|
D|-------------------------------|----------------3-/-5----------|
A|3---------------3--------------|3------------------------------|
E|-------------------------------|-------------------------------|



          F
e|------- 8------ ------- 8------|------- 8------ ------- -------|
B|-------10--------------10------|-------10----------------------|
G|-------10--------------10------|-------10----------------------|
D|-------------------------------|-------------------------------|
A|-------------------------------|-------------------------------|
E|-------------------------------|-------------------------------|
  mean    what    I       said                            I'm 
e|------- ------- ------- -------|------- ------- ------- -------|
B|-------------------------------|-------------------------------|
G|-------------------------------|-------------------------------|
D|-------------------------------|-------------------------------|
A|-------------------------------|-------------------------------|
E|1---------------1--------------|1---------------3-/-5----------|



          C                               Cmaj7
e|------- 8------ ------- 8------|------- 8------ ------- 8------|
B|--------8---------------8------|-------12--------------12------|
G|--------9---------------9------|-------12--------------12------|
D|-------------------------------|-------------------------------|
A|-------------------------------|-------------------------------|
E|-------------------------------|-------------------------------|
  trying  not     to      wander                          when 
e|------- ------- ------- -------|------- ------- ------- -------|
B|-------------------------------|-------------------------------|
G|-------------------------------|-------------------------------|
D|-------------------------------|-------------------------------|
A|3---------------3--------------|3---------------5-/-7---5------|
E|-------------------------------|-------------------------------|



          F                    
e|------- 8------ ------- 8------|------- 8------ ------- 8------|
B|-------10--------------10------|-------10--------------10------|
G|-------10--------------10------|-------10--------------10------|
D|-------------------------------|-------------------------------|
A|-------------------------------|-------------------------------|
E|-------------------------------|-------------------------------|
  you     go      away                                    But,                  
e|------- ------- ------- -------|------- ------- ------- -------|
B|-------------------------------|-------------------------------|
G|-------------------------------|-------------------------------|
D|-------------------------------|-------------------------------|
A|-------------------------------|------------------------3------|
E|1---------------1--------------|1---------------3-/-5----------|



          C        
e|------- 8------ ------- 8------|------- 8---8-- ------- 8------|
B|--------8---------------8------|--------8---8-----------8------|
G|--------9---------------9------|--------9---9-----------9------|
D|-------------------------------|-------------------------------|
A|-------------------------------|-------------------------------|
E|-------------------------------|-------------------------------|   
  baby                            tough   I'll never      make ad..  
e|------- 3------ ------- 3------|------- 3------ ------- 3------|
B|--------5---------------5------|--------5---------------5------|
G|--------5---------------5------|--------5---------------5------|
D|--------5--------5------5------|--------5-------5-------5------|
A|--------3--------3------3------|--------3-------3-------3------|
E|-----------------3-------------|----------------3--------------|



          E
e|------- 7------ ------- 7------|------- 7---7-- ------- 7------|   
B|--------9---------------9------|--------9---9-----------9------|
G|--------9---------------9------|--------9---9-----------9------|
D|-------------------------------|-------------------------------|
A|-------------------------------|-------------------------------|
E|-------------------------------|-------------------------------|
  vances                          Seems   I   have    no  way the 
e|------- 0------ ------- 0------|------- 0------ ------- 0------|
B|--------0---------------0------|--------0---------------0------|
G|--------1---------------1------|--------1---------------1------|
D|--------2-------2-------2------|--------2-------2-------2------|
A|--------2-------2-------2------|--------2-------2-------2------|
E|--------0-------0-------0------|--------0-------0-------0------|



          F                 
e|------- 8------ ------- 8------|------- 8---8-- ------- 8------|
B|-------10--------------10------|-------10--10----------10------|
G|-------10--------------10------|-------10--10----------10------|
D|-------------------------------|-------------------------------|
A|-------------------------------|-------------------------------|
E|-------------------------------|-------------------------------|
  chances                         to      go      astray
e|------- 1------ ------- 1------|------- 1------ ------- 1------|
B|--------1---------------1------|--------1---------------1------|
G|--------2---------------2------|--------2---------------2------|
D|--------3-------3-------3------|--------3-------3-------3------|
A|--------3-------3-------3------|--------3-------3-------3------|
E|--------1-------1-------1------|--------1-------1-------1------|



           G
e|------- 10----- ------- 10-----|10----- ------- 10----- -------| 
B|--------12--------------12-----|12--------------12-------------|
G|--------12--------------12-----|12--------------12-------------|
D|-------------------------------|-------------------------------|
A|-------------------------------|-------------------------------|
E|-------------------------------|-------------------------------|
                                                  But      I 
e|------- 3------ 3---3-- ----3--|3------ 3------ 3------ 3------|
B|--------3-------3---3-------3--|3-------3-------3-------3------|
G|--------5-------5---5-------5--|5-------5-------5-------5------|
D|--------5-------5---5-------5--|5-------5-------5-------5------|
A|--------5-------5---5-------5--|5-------5-------5-------5------|
E|--------3-------3---3-------3--|3-------3-------3-------3------|       
          Gsus4


          C                               F
e|------- 8------ ------- 8------|------- 8------ ------- 8------|
B|--------8---------------8------|-------10--------------10------|
G|--------9---------------9------|-------10--------------10------|
D|-------------------------------|-------------------------------|
A|-------------------------------|-------------------------------|
E|-------------------------------|-------------------------------|
  don't    want   our     loving                  to      die
e|------- 3------ ------- 3------|------- 1------ ------- 1------|
B|--------5---------------5------|--------1---------------1------|
G|--------5---------------5------|--------2---------------2------|
D|--------5---------------5------|--------3---------------3------|
A|--------3---------------3------|--------3---------------3------|
E|-------------------------------|--------1---------------1------|



           G
e|------- 10----- ------- 10-----|------- 10----- ------- 10-----|
B|--------12--------------12-----|--------12--------------12-----|
G|--------12--------------12-----|--------12--------------12-----|
D|-------------------------------|-------------------------------|
A|-------------------------------|-------------------------------|
E|-------------------------------|-------------------------------|
                                                  And     I'm 
e|3---3-- ----3-- 3------ 3---3--|----3-- 3------ 3------ 3------|
B|3---3-------3---3-------3---3--|----3---3-------3-------3------|
G|5---5-------5---5-------5---5--|----5---5-------5-------5------|
D|5---5-------5---5-------5---5--|----5---5-------5-------5------|
A|5---5-------5---5-------5---5--|----5---5-------5-------5------|
E|3---3-------3---3-------3---3--|----3---3-------3-------3------|
  Gsus4


          C                               F
e|------- 8------ ------- 8------|------- 8------ ------- -------|
B|--------8---------------8------|-------10----------------------|
G|--------9---------------9------|-------10----------------------|
D|-------------------------------|-------------------------------|
A|-------------------------------|-------------------------------|
E|-------------------------------|-------------------------------|
  so      tired   of      living                   a      lie
e|------- 3------ ------- 3------|------- 1------ ------- 1------|
B|--------5---------------5------|--------1---------------1------|
G|--------5---------------5------|--------2---------------2------|
D|--------5---------------5------|--------3---------------3------|
A|--------3---------------3------|--------3---------------3------|
E|-------------------------------|--------1---------------1------|



           G
e|------- 10----- ------- 10-----|------- 10----- ------- 10-----|
B|--------12--------------12-----|--------12--------------12-----|
G|--------12--------------12-----|--------12--------------12-----|
D|-------------------------------|-------------------------------|
A|-------------------------------|-------------------------------|
E|-------------------------------|-------------------------------|
                                                  Though  I
e|------- 3------ 3---3-- ----3--|3------ 3------ 3------ -------|
B|--------3-------3---3-------3--|3-------3-------3--------------|
G|--------5-------5---5-------5--|5-------5-------5--------------|
D|--------5-------5---5-------5--|5-------5-------5--------------|
A|--------5-------5---5-------5--|5-------5-------5--------------|
E|--------3-------3---3-------3--|3-------3-------3--------------|
          Gsus4


          C                               E
e|------- 8------ ------- 8------|------- 7------ ------- 7------|  
B|--------8---------------8------|--------9---------------9------|
G|--------9---------------9------|--------9---------------9------|
D|-------------------------------|-------------------------------|
A|-------------------------------|-------------------------------|
E|-------------------------------|-------------------------------|
  know    I've    been    weak            I       can     try
e|------- 3------ ------- 3------|------- 0------ 0------ -------|
B|--------5---------------5------|--------3-------3--------------|
G|--------5---------------5------|--------1-------1--------------|
D|--------5---------------5------|--------2-------2--------------|
A|--------3---------------3------|--------2-------2--------------|
E|-------------------------------|--------0-------0--------------|



          Am
e|------- 5------ ------- 5------|------- 5------ ------- -------|  
B|--------5---------------5------|--------5----------------------|
G|--------5---------------5------|--------5----------------------|
D|-------------------------------|-------------------------------|
A|-------------------------------|-------------------------------|
E|-------------------------------|-------------------------------|
                                          Yeah,   I'll                
e|------- ----0-- ----0-- -------|------- ----0-- ----0-- -------|
B|------------0-------0----------|------------0-------0----------|
G|------------2-------2----------|------------2-------2----------|
D|------------2-------2----------|------------2-------2----------|  
A|------------0-------0----------|------------0-------0----------|
E|-------------------------------|-------------------------------|
              Asus2


          Gsus4
e|------- 8------ ------- 8------|------- ------- ------- -------|   
B|--------8---------------8------|-------------------------------|
G|--------7---------------7------|-------------------------------|
D|-------------------------------|-------------------------------|
A|-------------------------------|-------------------------------|
E|-------------------------------|-------------------------------|
  try. 
e|------- ------- 3------ ----3--|----3-- 3------ 3------ 3------|
B|----------------3-----------3--|----3---3-------3-------3------|
G|----------------5-----------5--|----5---5-------5-------5------|
D|----------------5-----------5--|----5---5-------5-------5------|
A|----------------5-----------5--|----5---5-------5-------5------|
E|----------------3-----------3--|----3---3-------3-------3------|
                  Gsus4

  x           x   x       X           x   x           x   x
          G                                Em
e|------- 7------ ------- 7------|------- 12----- ------- -------|   
B|--------8---------------8------|--------12---------------------|
G|--------7---------------7------|--------12---------------------|
D|-------------------------------|-------------------------------|
A|-------------------------------|-------------------------------|
E|-------------------------------|-------------------------------|     
                                                      
e|------- ------- 3------ ----3--|----3-- 3------ 3------ -------|
B|----------------3-----------3--|----3---3-------3--------------|
G|----------------4-----------4--|----4---4-------4--------------|
D|----------------5-----------5--|----5---5-------5--------------|
A|----------------5-----------5--|----5---5-------5--------------|
E|----------------3-----------3--|----3---3-------3--------------| 


  XX
  Em                              Am
e|7------ ------- ------- -------|8------ ------- ------- -------|
B|8------------------------------10------------------------------|
G|9------------------------------|9------------------------------|
D|9------------------------------|7------------------------------|
A|7------------------------------|-------------------------------|
E|-------------------------------|-------------------------------|
  Hold    me,     you     can     help    yourself        So 
e|7------ ------- ------- -------|5------ ------- ------- -------|
B|8------------------------------|8------------------------------|
G|7------------------------------|5------------------------------|
D|9------------------------------|5------------------------------|
A|7------------------------------|7------------------------------|
E|-------------------------------|5------------------------------|
                                  Am7

[ Tab from: http://www.guitartabs.cc/tabs/t/the_herd/i_dont_want_our_loving_to_die_tab.html ]
  Dm7                             G7
e|8------ ------- ------- -------|7------ ------- ------- -------|
B|6------------------------------|6------------------------------|
G|5------------------------------|7------------------------------|
D|7------------------------------|5------------------------------|
A|5------------------------------|-------------------------------|
E|-------------------------------|-------------------------------|
  try     not     to      mislead             her
e|5------ ------- ------- -------|3------ ------- ------- -------|
B|6------------------------------|5-------3----------------------|
G|7------------------------------|4------------------------------|
D|7------------------------------|3------------------------------|
A|5------------------------------|5------------------------------|
E|-------------------------------|3------------------------------|
  Dm


  Em                              Am
e|7------ ------- ------- -------|8------ ------- ------- -------|
B|8------------------------------10------------------------------|
G|9------------------------------|9------------------------------|
D|9------------------------------|7------------------------------|
A|7------------------------------|-------------------------------|
E|-------------------------------|-------------------------------|
  You've  done    many            foolish     things          But
e|7------ ------- ------- -------|5------ ------- ------- -------|
B|8------------------------------|8------------------------------|
G|7------------------------------|5------------------------------|
D|9------------------------------|5------------------------------|
A|7------------------------------|7------------------------------|
E|-------------------------------|5------------------------------|
                                  Am7


  Dm7
e|8------ ------- ------- -------|
B|6------------------------------|
G|5------------------------------|
D|7------------------------------|
A|5------------------------------|
E|-------------------------------|
  deep    inside          you 


  G6
e|------- ------- ------- -------|------- ------- ------- -------|
B|8------------------------------|-------------------------------|
G|9------------------------------|-------------------------------|
D|9------------------------------|-------------------------------|
A10------------------------------|-------------------------------|
E|-------------------------------|-------------------------------|
  need 
e|------- ------- 3------ 3---3--|3------ 3---3-- 3---3-- 3------|
B|----------------3-------3---3--|3-------3---3---3---3---3------|
G|----------------5-------5---5--|5-------5---5---5---5---5------|
D|----------------5-------5---5--|5-------5---5---5---5---5------|
A|----------------5-------5---5--|5-------5---5---5---5---5------|
E|----------------3-------3---3--|3-------3---3---3---3---3------|
                  Gsus4

  X           x   x       X       x           x   x   x   x   x
  G+5
e|------- ------- ------- -------|------- ------- ------- -------|
B|8------------------------------|-------------------------------|
G|8------------------------------|-------------------------------|
D|9------------------------------|-------------------------------|
A10------------------------------|-------------------------------|
E|-------------------------------|-------------------------------|
  her
e|------- 3------ 3------ ----3--|----3-- 3------ 3------ -------|
B|--------4-------4-----------4--|----4---4-------4--------------|
G|--------4-------4-----------4--|----4---4-------4--------------|
D|--------5-------5-----------5--|----5---5-------5--------------|
A|-------------------------------|-------------------------------|
E|-------------------------------|-------------------------------|    

e|------- ------- ------- -------|------- ------- ---10P8 -------|
B|-------------------------------|-------------------------------|
G|-------------------------------|------------------------7------|
D|-------------------------------|-------------------------------|
A|-------------------------------|-------------------------------|
E|-------------------------------|-------------------------------|



          C                               Cmaj7
e|------- 8------ ------- 8------|------- 8---8-- ------- 8------|
B|--------8---------------8------|-------12--12----------12------|
G|--------9---------------9------|-------12--12----------12------|
D|-------------------------------|-------------------------------|
A|-------------------------------|-------------------------------|
E|-------------------------------|-------------------------------|
  
e|------- ------- ------- -------|------- ------- ------- -------|
B|-------------------------------|-------------------------------|
G|-------------------------------|-------------------------------|
D|-------------------------------|-------------------------------|
A|3---------------3--------------|3---------------5-/-7----------|
E|-------------------------------|-------------------------------|

e|------- ------- 8------ 10-----|------- 8------ ------- 7------|
B|--------8----------------------|-------------------------------|
G|9------------------------------|-------------------------------|
D|-------------------------------|-------------------------------|
A|-------------------------------|-------------------------------|
E|-------------------------------|-------------------------------|



          F
e|------- 8------ ------- 8------|------- 8---8-- ------- 8------|
B|-------10--------------10------|-------10--10----------10------|
G|-------10--------------10------|-------10--10----------10------|
D|-------------------------------|-------------------------------|
A|-------------------------------|-------------------------------|
E|-------------------------------|-------------------------------|
  
e|------- ------- ------- -------|------- ------- ------- -------|
B|-------------------------------|-------------------------------|
G|-------------------------------|-------------------------------|
D|-------------------------------|-------------------------------|
A|-------------------------------|------------------------3------|
E|1---------------1--------------|1---------------3-/-5----------|

e|------- 8------ 10----- 10-----|------- ------- ------- -------|
B|10-----------------------------|------------------------8------|
G|-------------------------------|-------------------------------|
D|-------------------------------|-------------------------------|
A|-------------------------------|-------------------------------|
E|-------------------------------|-------------------------------|



          C                               Cmaj7
e|------- 8------ ------- 8------|------- 8------ ------- 8------|
B|--------8---------------8------|-------12--------------12------|
G|--------9---------------9------|-------12--------------12------|
D|-------------------------------|-------------------------------|
A|-------------------------------|-------------------------------|
E|-------------------------------|-------------------------------|
  
e|------- ------- ------- -------|------- ------- ------- -------|
B|-------------------------------|-------------------------------|
G|-------------------------------|-------------------------------|
D|-------------------------------|-------------------------------|
A|3---------------3--------------|3---------------5-/-7---5------|
E|-------------------------------|-------------------------------|

e|------- ------- 8------ 10-----|------- 8------ ------- 7------|
B|--------8----------------------|-------------------------------|
G|9------------------------------|-------------------------------|
D|-------------------------------|-------------------------------|
A|-------------------------------|-------------------------------|
E|-------------------------------|-------------------------------|



          F
e|------- 8------ ------- 8------|------- 8---8-- ------- 8------|
B|-------10--------------10------|-------10--10----------10------|
G|-------10--------------10------|-------10--10----------10------|
D|-------------------------------|-------------------------------|
A|-------------------------------|-------------------------------|
E|-------------------------------|-------------------------------|
                                                         'cause
e|------- ------- ------- -------|------- ------- ------- -------|
B|-------------------------------|-------------------------------|
G|-------------------------------|-------------------------------|
D|-------------------------------|-------------------------------|
A|-------------------------------|------------------------3------|
E|1---------------1--------------|1---------------3-/-5----------|

e|------- 8------ 10----- 10-----|------- ------- ------- -------|
B|10-----------------------------|-------------------------------|
G|-------------------------------|-------------------------------|
D|-------------------------------|-------------------------------|
A|-------------------------------|-------------------------------|
E|-------------------------------|-------------------------------|



          C
e|------- ------- 8------ -------|------- ------- ------- -------|
B|--------8-------8-------8------|--------8---------------8------|
G|--------9-------9-------9------|--------9---------------9------|
D|-------10--------------10------|-------10--------------10------|
A|-------------------------------|-------------------------------|
E|-------------------------------|-------------------------------|

e|------- 8------ ------- 8------|------- 8------ ------- 8------|      
B|--------8---------------8------|--------8---------------8------|
G|--------9---------------9------|--------9---------------9------|  
D|-------------------------------|-------------------------------|
A|-------------------------------|-------------------------------|
E|-------------------------------|-------------------------------|   
  baby,                           don't   you know   I'll never 
e|------- 3------ ------- 3------|------- 3------ ------- 3------|  
B|--------5---------------5------|--------5---------------5------|
G|--------5---------------5------|--------5---------------5------|
D|--------5---------------5------|--------5---------------5------|
A|--------3---------------3------|--------3---------------3------|
E|-------------------------------|-------------------------------|



           E
e|------- ------- 12----- -------|------- ------- ------- -------|
B|--------12------12------12-----|--------12--------------12-----|
G|--------13------13------13-----|--------13--------------13-----|
D|--------14--------------14-----|--------14--------------14-----|
A|-------------------------------|-------------------------------|
E|-------------------------------|-------------------------------|

e|------- 7------ ------- 7------|------- 7------ ------- 7------|
B|--------9---------------9------|--------9---------------9------|
G|--------9---------------9------|--------9---------------9------|
D|-------------------------------|-------------------------------|
A|-------------------------------|-------------------------------|
E|-------------------------------|-------------------------------|    
  leave   you                     Never       wanted      to de...
e|------- 0------ ------- 0------|------- 0------ ------- 0------|
B|--------0---------------0------|--------0---------------0------|
G|--------1---------------1------|--------1---------------1------|
D|--------2---------------2------|--------2---------------2------|
A|--------2---------------2------|--------2---------------2------|
E|--------0---------------0------|--------0---------------0------|



          F
e|------- ------- 8------ -------|------- ------- 8------ -------|
B|-------10------10------10------|-------10------10--------------|
G|-------10------10------10------|-------10------10--------------|
D|-------10--------------10------|-------10------10--------------|
A|-------------------------------|-------------------------------|
E|-------------------------------|-------------------------------|

e|------- 8------ ------- 8------|------- 8------ ------- 8------|
B|-------10--------------10------|-------10--------------10------|
G|-------10--------------10------|-------10--------------10------|
D|-------10--------------10------|-------10--------------10------|
A|-------------------------------|-------------------------------|
E|-------------------------------|-------------------------------|
  ceive   you                     although        I       do
e|------- 1------ ------- 1------|------- 1------ ------- 1------|
B|--------1---------------1------|--------1---------------1------|
G|--------2---------------2------|--------2---------------2------|
D|--------3---------------3------|--------3---------------3------|
A|--------3---------------3------|--------3---------------3------|
E|--------1---------------1------|--------1---------------1------|



  Gsus4
e|------- ------- ------- -------|------- ------- ------- -------|
B|13-----------------------------|-------------------------------|
G|12-----------------------------|-------------------------------|
D|12-----------------------------|-------------------------------|
A|-------------------------------|-------------------------------|
E|-------------------------------|-------------------------------|

e|------- 10----- ------- 10-----|10----- ------- 10----- -------|
B|--------13--------------13-----|13--------------13-------------|
G|--------12--------------12-----|12--------------12-------------|
D|--------12--------------12------12--------------12-------------|
A|-------------------------------|-------------------------------|
E|-------------------------------|-------------------------------|
                                                  But      I 
e|------- 3------ 3---3-- ----3--|3------ 3---3-- 3---3-- 3------|
B|--------3-------3---3-------3--|3-------3---3---3---3---3------|
G|--------5-------5---5-------5--|5-------5---5---5---5---5------|
D|--------5-------5---5-------5--|5-------5---5---5---5---5------|
A|--------5-------5---5-------5--|5-------5---5---5---5---5------|
E|--------3-------3---3-------3--|3-------3---3---3---3---3------|     



  C                       F                               G
e|8------ 8------ 8------ 8------|------- 8------ -------10------|
B|8-------8-------8------10------|-------10--------------12------|
G|9-------9-------9------10------|-------10--------------12------|
D|-------------------------------|-------------------------------|
A|-------------------------------|-------------------------------|
E|-------------------------------|-------------------------------|

e|------- 8------ ------- 8------|------- 8------ ------- 8------|     
B|--------8---------------8------|-------10--------------10------|
G|--------9---------------9------|-------10--------------10------|
D|-------------------------------|-------------------------------|
A|-------------------------------|-------------------------------|
E|-------------------------------|-------------------------------|
  don't    want   our     loving                  to      die
e|------- 3------ ------- 3------|------- 1------ ------- 1------|
B|--------5---------------5------|--------1---------------1------|
G|--------5---------------5------|--------2---------------2------|
D|--------5---------------5------|--------3---------------3------|
A|--------3---------------3------|--------3---------------3------|
E|-------------------------------|--------1---------------1------|




e|------- ------- ------- 10-----|------- ------- ------- -------|
B|----------------12------12-----|12-----------------------------|
G|----------------12------12-----|12-----------------------------|
D|----------------12-------------|12-----------------------------|
A|-------------------------------|-------------------------------|
E|-------------------------------|-------------------------------|

e|------- 10----- ------- 10-----|------- 12----- 10----- -------|
B|--------12--------------12-----|--------13------12-------------|
G|--------12--------------12-----|--------14------12-------------|
D|-------------------------------|-------------------------------|
A|-------------------------------|-------------------------------|
E|-------------------------------|-------------------------------|
                                                  And     I'm 
e|------- 3------ 3---3-- ----3--|----3-- 3---3-- 3------ 3------|
B|--------3-------3---3-------3--|----3---3---3---3-------3------|
G|--------5-------5---5-------5--|----5---5---5---5-------5------|
D|--------5-------5---5-------5--|----5---5---5---5-------5------|
A|--------5-------5---5-------5--|----5---5---5---5-------5------|
E|--------3-------3---3-------3--|----3---3---3---3-------3------|
          Gsus4


  C                       F                               G
e|8------ 8------ 8------ 8------|------- 8------ -------10------|
B|8-------8-------8------10------|-------10--------------12------|
G|9-------9-------9------10------|-------10--------------12------|
D|-------------------------------|-------------------------------|
A|-------------------------------|-------------------------------|
E|-------------------------------|-------------------------------|

e|------- 8------ ------- 8------|------- 8------ ------- 10-----|
B|--------8---------------8------|-------10---------------12-----|
G|--------9---------------9------|-------10---------------12-----|
D|-------10--------------10------|-------10---------------12-----|
A|-------------------------------|-------------------------------|
E|-------------------------------|-------------------------------|
  so      tired   of      living                   a      lie
e|------- 3------ ------- 3------|------- 1------ ------- 1------|
B|--------5---------------5------|--------1---------------1------|
G|--------5---------------5------|--------2---------------2------|
D|--------5---------------5------|--------3---------------3------|
A|--------3---------------3------|--------3---------------3------|
E|-------------------------------|--------1---------------1------|     




e|10----- ------- 10----- -------|10----- 10----- ------- -------|
B|12----------13--12----------13-|12------13---------------------|
G|12--------------12-------------|12------12---------------------|
D|-------------------------------|-------------------------------|
A|-------------------------------|-------------------------------|
E|-------------------------------|-------------------------------|

e|------- 10----- ------- 10-----|------- 12----- 13----- -------|
B|--------12--------------12-----|--------13------15-------------|
G|--------12--------------12-----|--------14------16-------------|
D|-------------------------------|-------------------------------|
A|-------------------------------|-------------------------------|
E|-------------------------------|-------------------------------|
                                                  Though  I
e|------- 3------ 3---3-- ----3--|----3-- 3------ 3------ 3------|
B|--------3-------3---3-------3--|----3---3-------3-------3------|
G|--------5-------5---5-------5--|----5---5-------5-------5------|
D|--------5-------5---5-------5--|----5---5-------5-------5------|
A|--------5-------5---5-------5--|----5---5-------5-------5------|
E|--------3-------3---3-------3--|----3---3-------3-------3------|
          Gsus4


          C               E
e|------- 8------ ------- 7------|------- ------- ------- -------|
B|--------8---------------9------|-------------------------------|
G|--------9---------------9------|-------------------------------|
D|-------------------------------|-------------------------------|
A|-------------------------------|-------------------------------|
E|-------------------------------|-------------------------------|
  know    I've    been    weak            I       can     try
e|------- 3------ ------- 3------|------- 0------ ------- 0------|
B|--------5---------------5------|--------0---------------0------|
G|--------5---------------5------|--------1---------------1------|
D|--------5---------------5------|--------2---------------2------|
A|--------3---------------3------|--------2---------------2------|
E|-------------------------------|--------0---------------0------|



          Amadd9                  Am
e|------- 7------ ------- -------|5------ 7------ 8------ 8------|
B|--------5----------------------|5-----------------------8------|
G|--------5----------------------|5-----------------------7------|
D|-------------------------------|-------------------------------|
A|-------------------------------|-------------------------------|
E|-------------------------------|-------------------------------|
                                          Yeah,   I'll    
e|------- ----0-- ----0-- -------|------- ----0-- ----0-- -------|
B|--------1---0-------0----------|------------0-------0----------|    
G|2-----------2-------2----------|2-----------2-------2----------|
D|------------2-------2----------|------------2-------2----------|
A|------------0-------0----------|------------0-------0----------|
E|-------------------------------|-------------------------------|     
  Am          Asus2            


          Gsus4
e|------- 8------ ------- 8------|------- 8------ ------- 8------|
B|--------8---------------8------|--------8---------------8------|  
G|--------7---------------7------|--------7---------------7------|
D|-------------------------------|-------------------------------|
A|-------------------------------|-------------------------------|
E|-------------------------------|-------------------------------|
  try.
e|------- 3------ ------- 3------|------- 3------ ------- 3------|
B|--------3---------------3------|--------3---------------3------|
G|--------5---------------5------|--------5---------------5------|
D|--------5---------------5------|--------5---------------5------|
A|--------5---------------5------|--------5---------------5------|
E|--------3---------------3------|--------3---------------3------|




e|------- 8------ ------- 8------|------- 8------ ------- 8------|
B|--------8---------------8------|--------8---------------8------|
G|--------7---------------7------|--------7---------------7------|
D|-------------------------------|-------------------------------|
A|-------------------------------|-------------------------------|
E|-------------------------------|-------------------------------|
                                                  No      I
e|------- 3------ ------- 3------|------- 3------ ------- 3------|
B|--------3---------------3------|--------3---------------3------|
G|--------4---------------4------|--------4---------------4------|
D|--------5---------------5------|--------5---------------5------|
A|--------5---------------5------|--------5---------------5------|
E|--------3---------------3------|--------3---------------3------|
          G


          C                               F
e|------- 8------ ------- 8------|------- 8------ ------- 8------|   
B|--------8---------------8------|-------10--------------10------|
G|--------9---------------9------|-------10--------------10------|
D|-------------------------------|-------------------------------|
A|-------------------------------|-------------------------------|
E|-------------------------------|-------------------------------|
  don't    want   our     loving                  to      die
e|------- 3------ ------- 3------|------- 1------ 1------ -------|
B|--------5---------------5------|--------1-------1--------------|
G|--------5---------------5------|--------2-------2--------------|
D|--------5---------------5------|--------3-------3--------------|
A|--------3---------------3------|--------3-------3--------------|
E|-------------------------------|--------1-------1--------------|



           G                               Am      G
e|------- 10----- ------- 10-----|------- 12----- 10----- -------|
B|--------12--------------12-----|--------13------12-------------|
G|--------12--------------12-----|--------14------12-------------|
D|-------------------------------|-------------------------------|
A|-------------------------------|-------------------------------|
E|-------------------------------|-------------------------------|
                                                  And     I'm 
e|------- 3------ ------- 3------|------- 3------ 3------ 3------|
B|--------3---------------3------|--------3-------3-------5------|
G|--------4---------------4------|--------4-------4-------5------|
D|--------5---------------5------|--------5-------5-------5------|
A|--------5---------------5------|--------5-------5-------3------|
E|--------3---------------3------|--------3-------3--------------|
                                                          C

          C                               F
e|------- 8------ ------- 8------|------- 8------ ------- 8------|
B|--------8---------------8------|-------10--------------10------|
G|--------9---------------9------|-------10--------------10------|
D|-------------------------------|-------------------------------|
A|-------------------------------|-------------------------------|
E|-------------------------------|-------------------------------|
  so      tired   of      living                   a      lie
e|------- 3------ ------- 3------|------- 1------ ------- 1------|
B|--------5---------------5------|--------1---------------1------|
G|--------5---------------5------|--------2---------------2------|
D|--------5---------------5------|--------3---------------3------|
A|--------3---------------3------|--------3---------------3------|
E|-------------------------------|--------1---------------1------|



           G                               G6     C     
e|------- 10----- ------- 10-----|------- 12----- 8------ -------|
B|--------12--------------12-----|--------12------8--------------|
G|--------12--------------12-----|--------12------9--------------|
D|-------------------------------|-------------------------------|
A|-------------------------------|-------------------------------|
E|-------------------------------|-------------------------------|
                                                  Though  I
e|------- 3------ 3---3-- 3---3--|3------ 3------ ------- 3------|
B|--------3-------3---3---3---3--|3-------3---------------3------|
G|--------4-------4---4---4---4--|4-------4---------------4------|
D|--------5-------5---5---5---5--|5-------5---------------5------|
A|--------5-------5---5---5---5--|5-------5---------------5------|
E|--------3-------3---3---3---3--|3-------3---------------3------|



          C                               E
e|------- 8------ ------- 8------|------- 7------ ------- 7------|
B|--------8---------------8------|--------9---------------9------|
G|--------9---------------9------|--------9---------------9------|
D|-------------------------------|-------------------------------|
A|-------------------------------|-------------------------------|
E|-------------------------------|-------------------------------|
  know    I've    been    weak            I       can     try
e|------- 3------ ------- 3------|------- 0------ ------- 0------|
B|--------5---------------5------|--------0---------------0------|
G|--------5---------------5------|--------1---------------1------|
D|--------5---------------5------|--------2---------------2------|
A|--------3---------------3------|--------2---------------2------|
E|-------------------------------|--------0---------------0------|



          Am
e|------- 5------ ------- -------|------- 5------ ------- -------|
B|--------5----------------------|--------5----------------------|
G|--------5----------------------|--------5----------------------|
D|-------------------------------|-------------------------------|
A|-------------------------------|-------------------------------|
E|-------------------------------|-------------------------------|
                                          Yeah,   I'll    
e|------- 0---0-- ----0-- ----0--|------- 0---0-- ----0-- -------|
B|--------1---0-------0-------0-H|1-------1---0-------0----------|    
G|--------2---2-------2-------2--|--------2---2-------2----------|
D|--------2---2-------2-------2--|--------2---2-------2----------|
A|--------0---0-------0-------0--|--------0---0-------0----------|
E|-------------------------------|-------------------------------|
          Am  Asus2               Am          Asus2


  Gsus4
e|8------ ------- 8------ -------|8---8-- ----8-- 8------ 8------|
B|8---------------8--------------|8---8-------8---8-------8------|
G|7---------------7--------------|7---7-------7---7-------7------|
D|-------------------------------|-------------------------------|
A|-------------------------------|-------------------------------|
E|-------------------------------|-------------------------------|
  try.
e|------- ------- 3------ -------|3---3-- 3------ 3------ 3------|    
B|----------------3--------------|3---3---3-------3-------3------|
G|----------------5--------------|5---5---5-------5-------5------|
D|----------------5--------------|5---5---5-------5-------5------|
A|----------------5--------------|5---5---5-------5-------5------|
E|----------------3--------------|3---3---3-------3-------3------|


  x  x  x x  x  x x  x  x X  X  X x  x  x x  x  x X  X  X X  X  X
  G
e|7------ ------- 7------ -------|7------ 7------ 7--\--- -------|
B|8---------------8--------------|8-------8-------8--\-----------|
G|7---------------7--------------|7-------7-------7--\-----------|
D|-------------------------------|-------------------------------|
A|-------------------------------|-------------------------------|
E|-------------------------------|-------------------------------|
                                                          Baaaaaa
e|------- 3------ 3------ 3------|------- 3------ 3------ -------|
B|--------3-------3-------3------|--------3-------3--------------|
G|--------4-------4-------4------|--------4-------4--------------|
D|--------5-------5-------5------|--------5-------5--------------|
A|--------5-------5-------5------|--------5-------5--------------|
E|--------3-------3-------3------|--------3-------3--------------| 



          C                               F
e|------- 8------ ------- 8------|------- 8------ ------- 8------|
B|--------8---------------8------|-------10--------------10------|
G|--------9---------------9------|-------10--------------10------|
D|-------------------------------|-------------------------------|
A|-------------------------------|-------------------------------|
E|-------------------------------|-------------------------------|
  Um      ba      ba      ba              ba
e|------- 3------ ------- 3------|------- 1------ ------- 1------|
B|--------5---------------5------|--------1---------------1------|
G|--------5---------------5------|--------2---------------2------|
D|--------5---------------5------|3-------3-------3-------3------|
A|--------3---------------3------|3-------3-------3-------3------|
E|-------------------------------|1-------1-------1-------1------|



           G                              F        G
e|------- 10----- ------- 10-----|------- 8------ 10----- -------|
B|--------12--------------12-----|-------10-------12-------------|
G|--------12--------------12-----|-------10-------12-------------|
D|-------------------------------|-------------------------------|
A|-------------------------------|-------------------------------|
E|-------------------------------|-------------------------------|
                                                          Baaaaaa
e|------- 3------ ------- 3------|------- 3------ ------- 3------|
B|--------3---------------3------|--------3---------------5------|
G|--------4---------------4------|--------4---------------5------|
D|--------5---------------5------|--------5---------------5------|
A|--------5---------------5------|--------5---------------3------|
E|--------3---------------3------|--------3----------------------|
                                                          C


          C                               F
e|------- 8------ ------- 8------|------- 8------ ------- 8------|
B|--------8---------------8------|-------10--------------10------|
G|--------9---------------9------|-------10--------------10------|
D|-------------------------------|-------------------------------|
A|-------------------------------|-------------------------------|
E|-------------------------------|-------------------------------|
  Um      ba      ba      ba              ba
e|------- 3------ ------- 3------|------- ------- ------- 1------|
B|--------5---------------5------|------------------------1------|
G|--------5---------------5------|------------------------2------|
D|--------5---------------5------|------------------------3------|
A|--------3---------------3------|------------------------3------|
E|-------------------------------|------------------------1------|



           G                               Am      Bm-5
e|------- 10----- ------- 10-----|------- 12----- 13----- -------|
B|--------12--------------12-----|--------13------15-------------|
G|--------12--------------12-----|--------14------16-------------|
D|-------------------------------|-------------------------------|
A|-------------------------------|-------------------------------|
E|-------------------------------|-------------------------------|
                                                          Baaaaaa
e|------- 3------ ------- 3------|------- 3------ ------- 3------|
B|--------3---------------3------|--------3---------------5------|
G|--------4---------------4------|--------4---------------5------|
D|--------5---------------5------|--------5---------------5------|
A|--------5---------------5------|--------5---------------3------|
E|--------3---------------3------|--------3----------------------|



          C                               F
e|------- 8------ ------- 8------|------- 8------ ------- 8------|
B|--------8---------------8------|-------10--------------10------|
G|--------9---------------9------|-------10--------------10------|
D|-------------------------------|-------------------------------|
A|-------------------------------|-------------------------------|
E|-------------------------------|-------------------------------|
  Um      ba      ba      ba              ba
e|------- 3------ ------- 3------|------- 1------ ------- 1------|
B|--------5---------------5------|--------1---------------1------|
G|--------5---------------5------|--------2---------------2------|
D|--------5---------------5------|--------3---------------3------|
A|--------3---------------3------|--------3---------------3------|
E|-------------------------------|--------1---------------1------|
  ..............................Fade.............................


           G                               Am      Bm-5
e|------- 10----- ------- 10-----|------- 12----- 13----- -------|
B|--------12--------------12-----|--------13------15-------------|
G|--------12--------------12-----|--------14------16-------------|
D|-------------------------------|-------------------------------|
A|-------------------------------|-------------------------------|
E|-------------------------------|-------------------------------|
                                                          Baaaaaa
e|------- 3------ ------- 3------|------- 3------ ------- 3------|
B|--------3---------------3------|--------3---------------5------|
G|--------4---------------4------|--------4---------------5------|
D|--------5---------------5------|--------5---------------5------|
A|--------5---------------5------|--------5---------------3------|
E|--------3---------------3------|--------3----------------------|
  ...............................................................


          C                               F                G
e|------- 8------ ------- 8------|------- 8------ ------- 10-----|
B|--------8---------------8------|-------10---------------12-----|
G|--------9---------------9------|-------10---------------12-----|
D|-------------------------------|-------------------------------|
A|-------------------------------|-------------------------------|
E|-------------------------------|-------------------------------|
  Um      ba      ba      ba              ba
e|------- 3------ ------- 3------|------- 1------ ------- 1------|
B|--------5---------------5------|--------1---------------1------|
G|--------5---------------5------|--------2---------------2------|
D|--------5---------------5------|--------3---------------3------|
A|--------3---------------3------|--------3---------------3------|
E|-------------------------------|--------1---------------1------|
  ...............................................................


                                           Am      Bm-5
e|------- 10----- ------- 10-----|------- 12----- 13----- -------|
B|--------12--------------12-----|--------13------15-------------|
G|--------12--------------12-----|--------14------16-------------|
D|-------------------------------|-------------------------------|
A|-------------------------------|-------------------------------|
E|-------------------------------|-------------------------------|
                                                         
e|------- 3------ ------- 3------|------- 3------ ------- 3------|
B|--------3---------------3------|--------3---------------3------|
G|--------4---------------4------|--------4---------------4------|
D|--------5---------------5------|--------5---------------5------|
A|--------5---------------5------|--------5---------------5------|
E|--------3---------------3------|--------3---------------3------|
  ...............................................................









        B  Bend
        R  Release
        /  Slide up
        \  Slide down
        H  Hammer-on
        P  Pull-off
        ~  Vibrato
        +  Harmonic
        x  Mute note
        .  Play note like a dot in standard notation
        ^  Ties two notes together
        (. Pause
Comments