The Gummeries - Blacklight Chords & Tabs

 

Blacklight Chords & Tabs

The Gummeries Chords & Tabs

Version: 1 Type: Tab 0 ratings
1 star 2 stars 3 stars 4 stars 5 stars
comments

Blacklight Tab

Blacklight
The Gummeries
Standard Tuning
after bass...Guitar intro
e--------------------------------------
b--------------------------------------
g--------------------------------------  x1    
d---------6-----------4s5-4s5-4s5------
a-12s7-----------5---------------------
e--------------------------------------
Verse
e-------------------------------------------------------------
b-------------------------------------------------------------
g------------------9-9-9-9-9-9-9-9-----------------7---7---7--  x4
d--9-9-9-9-9-9-9-9-6-6-6-6-6-6-6-6-7-7-7-7-7-7-7-7-4s5-4s5-4s5
a--7-7-7-7-7-7-7-7-----------------5-5-5-5-5-5-5-5------------
e-------------------------------------------------------------                   

Chorus

e-------------------------------------------------
b-------------------------------------------------
g-------------------------------------------------  x2
d------6-----------6-----------6------------------
a--7-7---7-5-7-7-7---7-5-7-7-7---7-5-7-7b---------
e-------------------------------------------------

The order of the song goes:
Bass Intro
Guitar intro
Verse
Chorus
Verse
Chorus
Drum Solo
Verse
Bass Outro
[ Tab from: http://www.guitartabs.cc/tabs/t/the_gummeries/blacklight_tab.html ]
Comments