The Greenhornes - There Is An End Chords & Tabs

 

There Is An End Chords & Tabs

The Greenhornes Chords & Tabs

Version: 1 Type: Chords 0 ratings
1 star 2 stars 3 stars 4 stars 5 stars
comments

There Is An End Chords

   
-----------------------------------------------------------------------------
     THERE IS AN END - The Greenhornes (From the Soundtrack "Broken Flowers")
-----------------------------------------------------------------------------
Tabbed by: Andrea
Email: maurer-andrea@web.de

Tuning: EADGBe

Chords: F#m 244222   (----22)
        C#m 446654   (----54)
        B#m 224432   (----32)

To make it sound like the record just pick the B and e strings.

The verse rhythm goes like that:

                   1   2   3   4
                       x     x   x

The first two stikes are short, the third is not always played and is already part of 
following chord!

You should be able to figure out the refrain rhythm by yourself!

I changed the solo a bit, because there are two guitars playing, but this tab is meant 
for one guitar, so I made a mixture of what normally two guitars are playing.. Just try 
or change it!

INTRO:

e|-----------------------------------------------------------------------------|
B|-----7-----5-7----5-7-----5-7----5-7---5-7----5-7-----5-7---5-7--------------|
G|--------6--------------6-------------6------------6--------------------------|


VERSE 1:

F#m            C#m  F#m           C#m
    Words disappear, words once so clear
B#m         C#m                      F#m
    Only echoes passing through the night
F#m                 C#m F#m          C#m
    The lines on my face your fingers once traced
B#m          C#m               F#m
    Fading reflection of what was

REPEAT INTRO

VERSE 2:
[ Tab from: http://www.guitartabs.cc/tabs/t/the_greenhornes/there_is_an_end_crd.html ]
F#m              C#m  F#m              C#m
    Thoughts rearrange for millions I'm strange
B#m          C#m                F#m
    All my skins drifting on the wind
F#m                    C#m F#m              C#m
    Spring brings the rain with winter comes pain
B#m          C#m        F#m
    Every season has an end

REFRAIN:

    B#m                         F#m
    I'll try to see through the skies
              B#m                            C#m     B#m
    But the clouds were there locking up the sun, the sun


SOLO:

e|-----------------------------------------------------------------------------|
B|-------------------------------5-5h7---7-7-5---------------------------------|
G|--------------2-4--4/6--6----6----------------6p4-6--2-4-4/6--4-2-4-4/6--4---|
D|---4-0-4---4-----------------------------------------------------------------|

e|-----------------------------------------------------------------------------|
B|-----------------------------------------------------------------------------|
G|-2-4--4p2---2----------------------------------------------------------------|
D|----------4-----4-4p2----2h4-------------------------------------------------|
|
A-----------------------4----------------------------------------------------|

VERSE 3:

F#m               C#m F#m               C#m
    Thoughts rearrange for million I'm strange
B#m         C#m                  F#m
    All my skins drifting on the wind
F#m                    C#m F#m                C#m
    Spring brings the rain, with winter comes pain
B#m        C#m           F#m
    Every season has an end

(play INTRO while singing...)
    There's an end, there's an end
                                    F#m
    There's an end, there's an end


| /  slide up
| \  slide down
| h  hammer-on
| p  pull-off
| ~  vibrato
| +  harmonic
| x  Mute note
Comments