The Great Dividing Range - Mr Tailor Chords & Tabs

 

Mr Tailor Chords & Tabs

The Great Dividing Range Chords & Tabs

Version: 1 Type: Tab 0 ratings
1 star 2 stars 3 stars 4 stars 5 stars
comments

Mr Tailor Tab

=======================================================================================
Song - MR TAILOR
Band - THE GREAT DIVIDING RANGE
Album - The Great Dividing Range
=======================================================================================

Transcribed by: Jack Housden  (stratlegend57@hotmail.com)



This is the lead parts for Mr Tailor......pretty simple but sounds good. some bars are 4/4 
and some 2/4 but they are easy to work out. 


help:  b - bend
       ~ - vibrato




intro:

|------------|--------|------------|--------|-----|----|-------------------|-------|-
|------------|--------|------------|--------|-----|----|-------------------|--9----|-
|--11-10-8-6-|------6-|--11-10-8-6-|------6-|--10-|--8-|--10b11--10b11--10-|----10-|-
|------------|--6-8---|------------|--6-8---|-----|----|-------------------|-------|-
|------------|--------|------------|--------|-----|----|-------------------|-------|-
|------------|--------|------------|--------|-----|----|-------------------|-------|-


|----|----|------|-------|
|----|----|--9---|-------|
|--8-|--6-|----8-|--10~--|
|----|----|------|-------|
|----|----|------|-------|
|----|----|------|-------|

[ Tab from: http://www.guitartabs.cc/tabs/t/the_great_dividing_range/mr_tailor_tab.html ]
solo:
			(x3)
|----------9----------- ||----------9---------|----------------|-------------|-
|-----9-11---11-9----9- ||-----9-11-----------|----------------|-------------|-
|--11-------------11---.||--11--------11-10-8-|--10-8-6-10-8-6-|--10-6-8-6-8-|-
|----------------------.||--------------------|----------------|-------------|-
|---------------------- ||--------------------|----------------|-------------|-
|---------------------- ||--------------------|----------------|-------------|-



|----------------|-------|------|------|-------|
|----------------|--9----|------|--9---|-------|
|--10-8-6-10-8-6-|----10-|--8-6-|----8-|--10~--|
|----------------|-------|------|------|-------|
|----------------|-------|------|------|-------|
|----------------|-------|------|------|-------|


last chorus:

|--------------|--------------|--16-14-13----|--------|--------------|-
|-----13-------|-----13-------|-----------14-|-----14-|--13-13-------|-
|--------13----|--------13----|--------------|--15----|--13----13----|-
|--13-------13-|--13-------13-|--------------|--------|--13-------13-|-
|--------------|--------------|--------------|--------|--------------|-
|--------------|--------------|--------------|--------|--------------|-


|--------------|--------------|-----|--14-13----14-13----|-----|
|--13-13-------|--13-13-------|--11-|--------14-------14-|--14-|
|--13----13----|--13----13----|--11-|--------------------|-----|
|--13-------13-|--13-------13-|--11-|--------------------|-----|
|--------------|--------------|-----|--------------------|-----|
|--------------|--------------|-----|--------------------|-----|
Comments