The Grates - 19 20 20 Chords & Tabs

 

19 20 20 Chords & Tabs

The Grates Chords & Tabs

Version: 2 Type: Tab

19 20 20 Tab

the grates - 19-20-20

Intro
[-----------------------------|
[-----------------------------|
[-----------------------------|
[-----------------------------|      Repeat den you'll get the beat
[--9--(2x)--11--(2x)----------|
[--7--------9-----------------|
[ Tab from: http://www.guitartabs.cc/tabs/t/the_grates/19_20_20_tab_ver_2.html ]
Verse
[-----------------------------|
[-----------------------------|
[-----------------------------|    repeat whole verse again
[-----------------------------|
[--11-----9-----6-----4-----6-|
[--9------7-----4-----2-----4-|

Chorus(part 1)
[---------------------|
[---------------------|
[---------------------|
[---------------------|    keep repeating until get to the verse again
[---11----------------|
[---9-----------------|

Chorus(part 2)
[------------------------|
[------------------------|
[------------------------|
[------------------------|
[---11----14----16-------|
[----9----12----14-------|

if u listen and follow..you'll get it in the end
any trouble email me pherrer14@hotmail.com