The Frugals - My Jolly Marmoset Chords & Tabs

 

My Jolly Marmoset Chords & Tabs

The Frugals Chords & Tabs

Version: 1 Type: Bass Tab 0 ratings
1 star 2 stars 3 stars 4 stars 5 stars
comments

My Jolly Marmoset Bass Tab

ok this is a band that broke up in 2002, and recently got back together for a single
gig at AGMF 2005, which i was front and centre for.

it inspired me to write this.


my jolly marmoset

tabbed on an acoustic bass

Verse/Prechorus

G|------------------------|------4-6-4-------------|------------------------|------4-6-4-------------|
D|------2-4-2-------------|-2--6--------2--6-4-4-4-|------2-4-2-------------|-2--6--------2--6-4--4--|
A|-0--4--------0--4-2-2-2-|------------------------|-0--4--------0--4-2-2-2-|------------------------|
E|------------------------|------------------------|------------------------|------------------------|

play this about 8 times, not sure though. you play it through the intro, then the verse 
the pre chorus.

Chorus

G|---------------1---|
D|---------1-2--2--2-|
A|-0--4-2------------|
E|-------------------|

play this say three times, then chuck the below in and either end the chorus or go back 
the above riff

chorus variation
[ Tab from: http://www.guitartabs.cc/tabs/t/the_frugals/my_jolly_marmoset_btab.html ]
G|---------------------|
D|---------1-22222--2--|
A|-0--4-2--------------|
E|---------------------|

End of chorus

G|------------------------|
D|------------------------|
A|------2-4-2-------------|
E|-0--4--------0--4-2-2-2-|

then go and do that again

bridge part one

G|--------------------------|-----------------------------|
D|--------------------------|---4-4--4-4-4--4-4-4---------|
A|-2-2--2-2-2--2-2-2--2-4-4-|-4---------------------4-4-4-|
E|--------------------------|-----------------------------|

bridge part two (key change)

G|------------------------|------6-8-6-------------|------------------------|------6-8-6-------------|
D|------4-6-4-------------|-4--8--------4--8-6-6-6-|------4-6-4-------------|-4--8--------4--8-6--6--|
A|-2--6--------2--6-4-4-4-|------------------------|-2--6--------2--6-4-4-4-|------------------------|
E|------------------------|------------------------|------------------------|------------------------|

then back to bridge part one, and then chorus (actually there might be a verse bit in 
them, listen and see)

well, not bad for a 5 minute tab.
Comments