The Fireman - Highway Chords & Tabs

 

Highway Chords & Tabs

The Fireman Chords & Tabs

Version: 1 Type: Tab

Highway Tab

   
-------------------------------------------------------------------------------
			     Highway – The Fireman
-------------------------------------------------------------------------------
My first tab, hopeful it will be of some use to all of you Paul McCartney/ Youth fans!

Tuning: Standard

Chords used:
Bm7      D       E       Fm
x24232   xx0232  022100  244222

Main Riff:
e|---------------------------------------------------------------------------|
B|---------------------------------------------------------------------------|
G|--------------2----------------------------------2-------------------------|
D|--------4---------------------------------4--------------------------------|
A|--2-----------------5------------2---------------------5-------------------|
E|---------------------------------------------------------------------------|

Chorus:
Highway, (Do ya, do ya, do ya, do ya)
Bm7       D
[ Tab from: http://www.guitartabs.cc/tabs/t/the_fireman/highway_tab.html ]
Move me, (Do ya, do ya, do ya, do ya)
E        Fm

Highway, (Do ya, do ya, do ya, do ya)
Bm7       D

Always, (Do ya, do ya, do ya, do ya)
E        Fm


Bridge (also played over “Oh, looking in the flowers, hangin’ on me every hour):
e|---------------------------------------------------------------------------|
B|---------------------------------------------------------------------------|
G|---------------------------------------------------------------------------|
D|---------------------------------------------------------------------------|
A|---------------------------------------------------------------------------|
E|--7--7--7--7--5----4----3--2-----7--7--7--7--5----4----3--2----------------|


Interlude:
Words are getting higher,
Bm7

Everybody fire,
Bm7

Lord the sun is rising again
Bm7


That’s pretty much all of the song, just piecing each part to where it needs to go.
If you have any questions, feel free to leave them in the comments; feedback is always welcome!