The Features - The Idea Of Growing Old Chords & Tabs

 

The Idea Of Growing Old Chords & Tabs

The Features Chords & Tabs

Version: 1 Type: Chords 0 ratings
1 star 2 stars 3 stars 4 stars 5 stars
comments

The Idea Of Growing Old Chords

   
IDEA OF GROWING OLD

3-0-0-0---|
2-2-2-0---|
0-2-4-0---|  x2
0-0-4-2---|
0-0-3-3---|
3-0-2-1---|
G Em Bm D
We can talk all night, We can talk all day
G Em Bm D
We can play scharades when there is nothing to say

3-0-0-0-3-0-0-|
2-2-2-0-2-2-0-|
0-2-4-0-0-2-0-|
0-0-4-2-0-0-2-|
0-0-3-3-0-0-3-|
3-0-2-1-3-0-1-|
G Em Bm D G Em Bm D
You turn me on to the idea of growing old

3-0-0-0---|
2-2-2-0---|
0-2-4-0---|  x2
0-0-4-2---|
0-0-3-3---|
3-0-2-1---|
G Em Bm D
I can make you angry, you can make me smile
G Em Bm D
We can make oragami with the kids for a while

3-0-0-0-3-0-0-|
2-2-2-0-2-2-0-|
0-2-4-0-0-2-0-|
0-0-4-2-0-0-2-|
0-0-3-3-0-0-3-|
3-0-2-1-3-0-1-|
G Em Bm D G Em Bm D
You turn me on to the idea of growing old

0-0
2-2
2-4
0-4
0-3
0-2
Em Bm
Now it won't be long

0-0-0
2-2-3
2-4-5
0-4-5
0-3-4
0-2-3
Em Bm C
No, it won't be long

3-0-0-0-----|
2-2-2-3-----|
0-4-2-5-----|    x3
0-4-0-5-----|
0-3-0-4-----|
3-2-0-3-----|
G Bm Em C
Whooooooooooooooa
G Bm Em C
Whooooooooooooooa
G Bm Em C
Whooooooooooooooa

3-0-0-0----|
2-2-2-3----|
0-4-2-5----|   x3
0-4-0-5----|
0-3-0-4----|
3-2-0-3----|
G Bm Em C
[ Tab from: http://www.guitartabs.cc/tabs/t/the_features/the_idea_of_growing_old_crd.html ]
3-0-0-0-3-|
2-2-2-3-2-|
0-4-2-5-0-|
0-4-0-5-0-|
0-3-0-4-0-|
3-2-0-3-3-|
G Bm Em C G
You turn me on to the idea of growing old

0-0-0-3-|
2-2-3-2-|
4-2-5-0-|
4-0-5-0-|
3-0-4-0-|
2-0-3-3-|
Bm Em C G
Turn me on to the idea of growing old

3-0-0-2----|
2-2-2-3----|
0-2-4-2----|   x4
0-0-4-0----|
0-0-3-0----|
3-0-2-0----|
G Em Bm D
G Em Bm D
G Em Bm D
We can count the number of times
G Em Bm D

3-0-0-2-3-0-0-2-|
2-2-2-3-2-2-2-3-|
0-2-4-2-0-2-4-2-|
0-0-4-0-0-0-4-0-|
0-0-3-0-0-0-3-0-|
3-0-2-0-3-0-2-0-|
I've acted foolish and you've rolled your eyes
G Em Bm D G Em Bm D
You turn me on to the idea of growing old

3-0-0-2----|
2-2-2-3----|
0-2-4-2----|   x2
0-0-4-0----|
0-0-3-0----|
3-0-2-0----|
G Em Bm D
You in your kerchif and me in my cap
G Em Bm D
We can settle down for an afternoon nap

3-0-0-2-3-0-0-2-|
2-2-2-3-2-2-2-3-|
0-2-4-2-0-2-4-2-|
0-0-4-0-0-0-4-0-|
0-0-3-0-0-0-3-0-|
3-0-2-0-3-0-2-0-|
G Em Bm D G Em Bm D
You turn me on to the idea of growing old

0-0
2-2
2-4
0-4
0-3
0-2
Em Bm
Now it won't be long

0-0-0
2-2-3
2-4-5
0-4-5
0-3-4
0-2-3
Em Bm C
No it won't be long

3-0-0-0---|
2-2-2-3---|
0-2-4-5---|  x4
0-0-4-5---|
0-0-3-4---|
3-0-2-3---|
G Bm Em C
Whooooooooooooooa
G Bm Em C
Whooooooooooooooa
G Bm Em C
Whooooooooooooooa

G Bm Em C
You turn me on to the idea of growing old
Comments